0
SECTION
2
HEADER
9
$INSUNITS
70
4
9
$ACADVER
1
AC1014
9
$HANDSEED
5
FFFF
0
ENDSEC
0
SECTION
2
TABLES
0
TABLE
2
VPORT
5
8
100
AcDbSymbolTable
0
ENDTAB
0
TABLE
2
LTYPE
5
5
100
AcDbSymbolTable
0
LTYPE
5
14
100
AcDbSymbolTableRecord
100
AcDbLinetypeTableRecord
2
BYBLOCK
70
0
0
LTYPE
5
15
100
AcDbSymbolTableRecord
100
AcDbLinetypeTableRecord
2
BYLAYER
70
0
0
ENDTAB
0
TABLE
2
LAYER
5
2
100
AcDbSymbolTable
70
2
0
LAYER
5
50
100
AcDbSymbolTableRecord
100
AcDbLayerTableRecord
2
0
70
0
6
CONTINUOUS
0
ENDTAB
0
TABLE
2
STYLE
5
3
100
AcDbSymbolTable
70
1
0
STYLE
5
11
100
AcDbSymbolTableRecord
100
AcDbTextStyleTableRecord
2
STANDARD
70
0
0
ENDTAB
0
TABLE
2
VIEW
5
6
100
AcDbSymbolTable
70
0
0
ENDTAB
0
TABLE
2
UCS
5
7
100
AcDbSymbolTable
70
0
0
ENDTAB
0
TABLE
2
APPID
5
9
100
AcDbSymbolTable
70
2
0
APPID
5
12
100
AcDbSymbolTableRecord
100
AcDbRegAppTableRecord
2
ACAD
70
0
0
ENDTAB
0
TABLE
2
DIMSTYLE
5
A
100
AcDbSymbolTable
70
1
0
ENDTAB
0
TABLE
2
BLOCK_RECORD
5
1
100
AcDbSymbolTable
70
1
0
BLOCK_RECORD
5
1F
100
AcDbSymbolTableRecord
100
AcDbBlockTableRecord
2
*MODEL_SPACE
0
BLOCK_RECORD
5
1B
100
AcDbSymbolTableRecord
100
AcDbBlockTableRecord
2
*PAPER_SPACE
0
ENDTAB
0
ENDSEC
0
SECTION
2
BLOCKS
0
BLOCK
5
20
100
AcDbEntity
100
AcDbBlockBegin
2
*MODEL_SPACE
0
ENDBLK
5
21
100
AcDbEntity
100
AcDbBlockEnd
0
BLOCK
5
1C
100
AcDbEntity
100
AcDbBlockBegin
2
*PAPER_SPACE
0
ENDBLK
5
1D
100
AcDbEntity
100
AcDbBlockEnd
0
ENDSEC
0
SECTION
2
ENTITIES
0
LINE
5
100
100
AcDbEntity
8
0
100
AcDbLine
10
-6.3771897891844453
20
-1.3041855328641505
30
0
11
-7.0409963820844457
21
-0.57425477148290938
31
0
0
LINE
5
101
100
AcDbEntity
8
0
100
AcDbLine
10
-7.0409963820844457
20
-0.57425477148290938
30
0
11
-6.7013671955531962
21
-0.23151934857665424
31
0
0
LINE
5
102
100
AcDbEntity
8
0
100
AcDbLine
10
-6.7013671955531962
20
-0.23151934857665424
30
0
11
-6.3617381383406979
21
0.11121620364833884
31
0
0
LINE
5
103
100
AcDbEntity
8
0
100
AcDbLine
10
-6.3617381383406979
20
0.11121620364833884
30
0
11
-8.9052051770906893
21
2.6543789553795838
31
0
0
LINE
5
104
100
AcDbEntity
8
0
100
AcDbLine
10
-8.9052051770906893
20
2.6543789553795838
30
0
11
-11.448671698565684
21
5.197540413923325
31
0
0
LINE
5
105
100
AcDbEntity
8
0
100
AcDbLine
10
-11.448671698565684
20
5.197540413923325
30
0
11
-11.607804757059439
21
5.067293284617076
31
0
0
SPLINE
5
106
100
AcDbEntity
8
0
100
AcDbSpline
70
4
71
3
72
8
73
4
74
0
42
0.000000001
43
0.0000000001
44
0.0000000001
40
0
40
0
40
0
40
0
40
1
40
1
40
1
40
1
41
1
41
1
41
1
41
1
10
-11.607804757059439
20
5.067293284617076
30
0
10
-11.838229949240695
20
4.8786926211983239
30
0
10
-11.944593974521931
20
4.831743449010828
30
0
10
-12.140309238290694
20
4.8322452057608256
30
0
0
SPLINE
5
107
100
AcDbEntity
8
0
100
AcDbSpline
70
4
71
3
72
8
73
4
74
0
42
0.000000001
43
0.0000000001
44
0.0000000001
40
0
40
0
40
0
40
0
40
1
40
1
40
1
40
1
41
1
41
1
41
1
41
1
10
-12.140309238290694
20
4.8322452057608256
30
0
10
-12.382289319421931
20
4.8328917995108256
30
0
10
-12.697097065078182
20
4.9945063554983271
30
0
10
-13.203905781365668
20
5.3783638477170781
30
0
0
SPLINE
5
108
100
AcDbEntity
8
0
100
AcDbSpline
70
4
71
3
72
8
73
4
74
0
42
0.000000001
43
0.0000000001
44
0.0000000001
40
0
40
0
40
0
40
0
40
1
40
1
40
1
40
1
41
1
41
1
41
1
41
1
10
-13.203905781365668
20
5.3783638477170781
30
0
10
-13.976432199215658
20
5.9634772655483186
30
0
10
-14.988838432378158
20
6.3843715184483285
30
0
10
-15.617779397090663
20
6.3819002371358247
30
0
0
SPLINE
5
109
100
AcDbEntity
8
0
100
AcDbSpline
70
4
71
3
72
8
73
4
74
0
42
0.000000001
43
0.0000000001
44
0.0000000001
40
0
40
0
40
0
40
0
40
1
40
1
40
1
40
1
41
1
41
1
41
1
41
1
10
-15.617779397090663
20
6.3819002371358247
30
0
10
-15.991373894671908
20
6.3804389352608233
30
0
10
-16.203398063278158
20
6.2606964973358226
30
0
10
-16.719916419271918
20
5.7594901279358224
30
0
0
SPLINE
5
110
100
AcDbEntity
8
0
100
AcDbSpline
70
4
71
3
72
8
73
4
74
0
42
0.000000001
43
0.0000000001
44
0.0000000001
40
0
40
0
40
0
40
0
40
1
40
1
40
1
40
1
41
1
41
1
41
1
41
1
10
-16.719916419271918
20
5.7594901279358224
30
0
10
-17.666884131965652
20
4.8405927310733237
30
0
10
-17.918003427796911
20
4.3377156927420746
30
0
10
-18.019088532384409
20
3.1578495667733342
30
0
0
LINE
5
111
100
AcDbEntity
8
0
100
AcDbLine
10
-18.019088532384409
20
3.1578495667733342
30
0
11
-18.051110829215659
21
2.7840879893670833
31
0
0
LINE
5
112
100
AcDbEntity
8
0
100
AcDbLine
10
-18.051110829215659
20
2.7840879893670833
30
0
11
-18.72614733304691
21
2.1532178475420904
31
0
0
SPLINE
5
113
100
AcDbEntity
8
0
100
AcDbSpline
70
4
71
3
72
8
73
4
74
0
42
0.000000001
43
0.0000000001
44
0.0000000001
40
0
40
0
40
0
40
0
40
1
40
1
40
1
40
1
41
1
41
1
41
1
41
1
10
-18.72614733304691
20
2.1532178475420904
30
0
10
-19.097417584734416
20
1.8062394764483392
30
0
10
-19.482762371896911
20
1.4764978722233391
30
0
10
-19.582469197246901
20
1.4204603076045919
30
0
0
LINE
5
114
100
AcDbEntity
8
0
100
AcDbLine
10
-19.582469197246901
20
1.4204603076045919
30
0
11
-19.763753911021908
21
1.3185714869858378
31
0
0
LINE
5
115
100
AcDbEntity
8
0
100
AcDbLine
10
-19.763753911021908
20
1.3185714869858378
30
0
11
-20.053692497184414
21
1.5340859686545949
31
0
0
SPLINE
5
116
100
AcDbEntity
8
0
100
AcDbSpline
70
4
71
3
72
8
73
4
74
0
42
0.000000001
43
0.0000000001
44
0.0000000001
40
0
40
0
40
0
40
0
40
1
40
1
40
1
40
1
41
1
41
1
41
1
41
1
10
-20.053692497184414
20
1.5340859686545949
30
0
10
-20.408589184659391
20
1.797884192010839
30
0
10
-22.760802715153147
20
4.1408333272545761
30
0
10
-22.940680958203139
20
4.409702138798326
30
0
0
LINE
5
117
100
AcDbEntity
8
0
100
AcDbLine
10
-22.940680958203139
20
4.409702138798326
30
0
11
-23.070325332815635
21
4.6034858977170749
31
0
0
LINE
5
118
100
AcDbEntity
8
0
100
AcDbLine
10
-23.070325332815635
20
4.6034858977170749
30
0
11
-22.947503815453132
21
4.7890826158920774
31
0
0
SPLINE
5
119
100
AcDbEntity
8
0
100
AcDbSpline
70
4
71
3
72
8
73
4
74
0
42
0.000000001
43
0.0000000001
44
0.0000000001
40
0
40
0
40
0
40
0
40
1
40
1
40
1
40
1
41
1
41
1
41
1
41
1
10
-22.947503815453132
20
4.7890826158920774
30
0
10
-22.787814815653142
20
5.0303884290608236
30
0
10
-21.855263945165646
20
5.9927225715420747
30
0
10
-21.671732447428134
20
6.1055970199733167
30
0
0
SPLINE
5
120
100
AcDbEntity
8
0
100
AcDbSpline
70
4
71
3
72
8
73
4
74
0
42
0.000000001
43
0.0000000001
44
0.0000000001
40
0
40
0
40
0
40
0
40
1
40
1
40
1
40
1
41
1
41
1
41
1
41
1
10
-21.671732447428134
20
6.1055970199733167
30
0
10
-21.593652501871887
20
6.1536181152795706
30
0
10
-21.396327995578144
20
6.2161048059608248
30
0
10
-21.233234033090653
20
6.244455355523324
30
0
0
SPLINE
5
121
100
AcDbEntity
8
0
100
AcDbSpline
70
4
71
3
72
8
73
4
74
0
42
0.000000001
43
0.0000000001
44
0.0000000001
40
0
40
0
40
0
40
0
40
1
40
1
40
1
40
1
41
1
41
1
41
1
41
1
10
-21.233234033090653
20
6.244455355523324
30
0
10
-20.334152148290663
20
6.4007432721983282
30
0
10
-19.617524665359404
20
6.8339047017233305
30
0
10
-19.184009937009403
20
7.4830985345108214
30
0
0
SPLINE
5
122
100
AcDbEntity
8
0
100
AcDbSpline
70
4
71
3
72
8
73
4
74
0
42
0.000000001
43
0.0000000001
44
0.0000000001
40
0
40
0
40
0
40
0
40
1
40
1
40
1
40
1
41
1
41
1
41
1
41
1
10
-19.184009937009403
20
7.4830985345108214
30
0
10
-18.954485320603158
20
7.826813934904564
30
0
10
-18.885578988534412
20
8.0546889613358168
30
0
10
-18.770875197065653
20
8.8493467314233172
30
0
0
SPLINE
5
123
100
AcDbEntity
8
0
100
AcDbSpline
70
4
71
3
72
8
73
4
74
0
42
0.000000001
43
0.0000000001
44
0.0000000001
40
0
40
0
40
0
40
0
40
1
40
1
40
1
40
1
41
1
41
1
41
1
41
1
10
-18.770875197065653
20
8.8493467314233172
30
0
10
-18.614404423678153
20
9.933362834442061
30
0
10
-18.403476360796908
20
10.325766356254558
30
0
10
-17.549467750396914
20
11.121613212248302
30
0
0
SPLINE
5
124
100
AcDbEntity
8
0
100
AcDbSpline
70
4
71
3
72
8
73
4
74
0
42
0.000000001
43
0.0000000001
44
0.0000000001
40
0
40
0
40
0
40
0
40
1
40
1
40
1
40
1
41
1
41
1
41
1
41
1
10
-17.549467750396914
20
11.121613212248302
30
0
10
-16.016315731303152
20
12.55034913439205
30
0
10
-13.826190063421908
20
14.136419032579543
30
0
10
-12.910582535559421
20
14.481052596098294
30
0
0
SPLINE
5
125
100
AcDbEntity
8
0
100
AcDbSpline
70
4
71
3
72
8
73
4
74
0
42
0.000000001
43
0.0000000001
44
0.0000000001
40
0
40
0
40
0
40
0
40
1
40
1
40
1
40
1
41
1
41
1
41
1
41
1
10
-12.910582535559421
20
14.481052596098294
30
0
10
-12.226521134803185
20
14.738532693285794
30
0
10
-11.036702767153184
20
14.971775353073294
30
0
10
-10.01054038127819
20
15.049554244579541
30
0
0
SPLINE
5
126
100
AcDbEntity
8
0
100
AcDbSpline
70
4
71
3
72
8
73
4
74
0
42
0.000000001
43
0.0000000001
44
0.0000000001
40
0
40
0
40
0
40
0
40
1
40
1
40
1
40
1
41
1
41
1
41
1
41
1
10
-10.01054038127819
20
15.049554244579541
30
0
10
-8.7369639403969401
20
15.146086035979547
30
0
10
-6.484654704984445
20
15.091854407704549
30
0
10
-5.2834487868469449
20
14.935734346767045
30
0
0
SPLINE
5
127
100
AcDbEntity
8
0
100
AcDbSpline
70
4
71
3
72
8
73
4
74
0
42
0.000000001
43
0.0000000001
44
0.0000000001
40
0
40
0
40
0
40
0
40
1
40
1
40
1
40
1
41
1
41
1
41
1
41
1
10
-5.2834487868469449
20
14.935734346767045
30
0
10
-4.1883273068532123
20
14.793401862998293
30
0
10
-2.2464782500407132
20
14.38404982581079
30
0
10
-1.7417873869219669
20
14.189133105323295
30
0
0
LINE
5
128
100
AcDbEntity
8
0
100
AcDbLine
10
-1.7417873869219669
20
14.189133105323295
30
0
11
-1.6163307413907102
21
14.140680602667041
31
0
0
LINE
5
129
100
AcDbEntity
8
0
100
AcDbLine
10
-1.6163307413907102
20
14.140680602667041
30
0
11
-1.6163307413907102
21
13.659102103823297
31
0
0
SPLINE
5
130
100
AcDbEntity
8
0
100
AcDbSpline
70
4
71
3
72
8
73
4
74
0
42
0.000000001
43
0.0000000001
44
0.0000000001
40
0
40
0
40
0
40
0
40
1
40
1
40
1
40
1
41
1
41
1
41
1
41
1
10
-1.6163307413907102
20
13.659102103823297
30
0
10
-1.6163307413907102
20
13.253950210317047
30
0
10
-1.6282591028907145
20
13.172946755779549
30
0
10
-1.6914927386719647
20
13.148681385529542
30
0
0
SPLINE
5
131
100
AcDbEntity
8
0
100
AcDbSpline
70
4
71
3
72
8
73
4
74
0
42
0.000000001
43
0.0000000001
44
0.0000000001
40
0
40
0
40
0
40
0
40
1
40
1
40
1
40
1
41
1
41
1
41
1
41
1
10
-1.6914927386719647
20
13.148681385529542
30
0
10
-1.7328312875719654
20
13.132817983785792
30
0
10
-2.1074913716532073
20
13.164854117723298
30
0
10
-2.5240703871844605
20
13.219872650592045
30
0
0
SPLINE
5
132
100
AcDbEntity
8
0
100
AcDbSpline
70
4
71
3
72
8
73
4
74
0
42
0.000000001
43
0.0000000001
44
0.0000000001
40
0
40
0
40
0
40
0
40
1
40
1
40
1
40
1
41
1
41
1
41
1
41
1
10
-2.5240703871844605
20
13.219872650592045
30
0
10
-3.7168073497032061
20
13.377399570210795
30
0
10
-4.4229097088906943
20
13.422764846348301
30
0
10
-5.7221940706781904
20
13.425344367454546
30
0
0
SPLINE
5
133
100
AcDbEntity
8
0
100
AcDbSpline
70
4
71
3
72
8
73
4
74
0
42
0.000000001
43
0.0000000001
44
0.0000000001
40
0
40
0
40
0
40
0
40
1
40
1
40
1
40
1
41
1
41
1
41
1
41
1
10
-5.7221940706781904
20
13.425344367454546
30
0
10
-6.9566945235094391
20
13.42779366457955
30
0
10
-7.4598444244031992
20
13.387896243829545
30
0
10
-8.2613653991906943
20
13.22399248732955
30
0
0
SPLINE
5
134
100
AcDbEntity
8
0
100
AcDbSpline
70
4
71
3
72
8
73
4
74
0
42
0.000000001
43
0.0000000001
44
0.0000000001
40
0
40
0
40
0
40
0
40
1
40
1
40
1
40
1
41
1
41
1
41
1
41
1
10
-8.2613653991906943
20
13.22399248732955
30
0
10
-9.181611073340683
20
13.035810816660796
30
0
10
-9.8693212026281874
20
12.719889248610798
30
0
10
-10.336813527309436
20
12.270569699910801
30
0
0
LINE
5
135
100
AcDbEntity
8
0
100
AcDbLine
10
-10.336813527309436
20
12.270569699910801
30
0
11
-10.649230039959443
21
11.970297252435806
31
0
0
LINE
5
136
100
AcDbEntity
8
0
100
AcDbLine
10
-10.649230039959443
20
11.970297252435806
30
0
11
-10.649230039959443
21
11.645400963135803
31
0
0
SPLINE
5
137
100
AcDbEntity
8
0
100
AcDbSpline
70
4
71
3
72
8
73
4
74
0
42
0.000000001
43
0.0000000001
44
0.0000000001
40
0
40
0
40
0
40
0
40
1
40
1
40
1
40
1
41
1
41
1
41
1
41
1
10
-10.649230039959443
20
11.645400963135803
30
0
10
-10.649230039959443
20
11.102082460073305
30
0
10
-10.464173356884432
20
10.796712267473307
30
0
10
-9.215669364571939
20
9.2798174257170629
30
0
0
SPLINE
5
138
100
AcDbEntity
8
0
100
AcDbSpline
70
4
71
3
72
8
73
4
74
0
42
0.000000001
43
0.0000000001
44
0.0000000001
40
0
40
0
40
0
40
0
40
1
40
1
40
1
40
1
41
1
41
1
41
1
41
1
10
-9.215669364571939
20
9.2798174257170629
30
0
10
-9.0504544452656965
20
9.0790862755920703
30
0
10
-8.8506864611906888
20
8.7859987778670607
30
0
10
-8.7717403386469428
20
8.6285122056983141
30
0
0
SPLINE
5
139
100
AcDbEntity
8
0
100
AcDbSpline
70
4
71
3
72
8
73
4
74
0
42
0.000000001
43
0.0000000001
44
0.0000000001
40
0
40
0
40
0
40
0
40
1
40
1
40
1
40
1
41
1
41
1
41
1
41
1
10
-8.7717403386469428
20
8.6285122056983141
30
0
10
-8.6406738457406895
20
8.3670514187483196
30
0
10
-8.6327362608656966
20
8.32703916294831
30
0
10
-8.6803845302156901
20
8.1680043867045669
30
0
0
SPLINE
5
140
100
AcDbEntity
8
0
100
AcDbSpline
70
4
71
3
72
8
73
4
74
0
42
0.000000001
43
0.0000000001
44
0.0000000001
40
0
40
0
40
0
40
0
40
1
40
1
40
1
40
1
41
1
41
1
41
1
41
1
10
-8.6803845302156901
20
8.1680043867045669
30
0
10
-8.7091473479531789
20
8.0720007330795696
30
0
10
-8.8555438027594402
20
7.8545288828108113
30
0
10
-9.0065874561656933
20
7.6834293137858145
30
0
0
SPLINE
5
141
100
AcDbEntity
8
0
100
AcDbSpline
70
4
71
3
72
8
73
4
74
0
42
0.000000001
43
0.0000000001
44
0.0000000001
40
0
40
0
40
0
40
0
40
1
40
1
40
1
40
1
41
1
41
1
41
1
41
1
10
-9.0065874561656933
20
7.6834293137858145
30
0
10
-9.1572996656156924
20
7.5127058036858223
30
0
10
-9.2806089733031882
20
7.3606017365295688
30
0
10
-9.2806089733031882
20
7.3454207498295654
30
0
0
SPLINE
5
142
100
AcDbEntity
8
0
100
AcDbSpline
70
4
71
3
72
8
73
4
74
0
42
0.000000001
43
0.0000000001
44
0.0000000001
40
0
40
0
40
0
40
0
40
1
40
1
40
1
40
1
41
1
41
1
41
1
41
1
10
-9.2806089733031882
20
7.3454207498295654
30
0
10
-9.2806089733031882
20
7.3302400217670671
30
0
10
-8.1423035658469356
20
6.1796525660295698
30
0
10
-6.7510413724406959
20
4.7885588749545738
30
0
0
LINE
5
143
100
AcDbEntity
8
0
100
AcDbLine
10
-6.7510413724406959
20
4.7885588749545738
30
0
11
-4.2214736422594612
21
2.2593004752233314
31
0
0
LINE
5
144
100
AcDbEntity
8
0
100
AcDbLine
10
-4.2214736422594612
20
2.2593004752233314
30
0
11
-3.9783781869094703
21
2.4892094269545817
31
0
0
SPLINE
5
145
100
AcDbEntity
8
0
100
AcDbSpline
70
4
71
3
72
8
73
4
74
0
42
0.000000001
43
0.0000000001
44
0.0000000001
40
0
40
0
40
0
40
0
40
1
40
1
40
1
40
1
41
1
41
1
41
1
41
1
10
-3.9783781869094703
20
2.4892094269545817
30
0
10
-3.5687752713469667
20
2.8765947346733323
30
0
10
-3.5885729374219544
20
2.8763929974233315
30
0
10
-3.1800088393782211
20
2.4973435763295848
30
0
0
SPLINE
5
146
100
AcDbEntity
8
0
100
AcDbSpline
70
4
71
3
72
8
73
4
74
0
42
0.000000001
43
0.0000000001
44
0.0000000001
40
0
40
0
40
0
40
0
40
1
40
1
40
1
40
1
41
1
41
1
41
1
41
1
10
-3.1800088393782211
20
2.4973435763295848
30
0
10
-2.9849077103532107
20
2.3163363805920811
30
0
10
-2.5173394755657164
20
1.8650289440670909
30
0
10
-2.1409687630594654
20
1.4944382624108421
30
0
0
LINE
5
147
100
AcDbEntity
8
0
100
AcDbLine
10
-2.1409687630594654
20
1.4944382624108421
30
0
11
-1.4566581650719712
21
0.82063701127958133
31
0
0
LINE
5
148
100
AcDbEntity
8
0
100
AcDbLine
10
-1.4566581650719712
20
0.82063701127958133
30
0
11
0.542521902496782
21
3.2831993950170801
31
0
0
LINE
5
149
100
AcDbEntity
8
0
100
AcDbLine
10
0.542521902496782
20
3.2831993950170801
30
0
11
2.5417019700655352
21
5.7457629426233154
31
0
0
LINE
5
150
100
AcDbEntity
8
0
100
AcDbLine
10
2.5417019700655352
20
5.7457629426233154
30
0
11
2.6638846528030236
21
5.6583657104483187
31
0
0
SPLINE
5
151
100
AcDbEntity
8
0
100
AcDbSpline
70
4
71
3
72
8
73
4
74
0
42
0.000000001
43
0.0000000001
44
0.0000000001
40
0
40
0
40
0
40
0
40
1
40
1
40
1
40
1
41
1
41
1
41
1
41
1
10
2.6638846528030236
20
5.6583657104483187
30
0
10
2.7838925821217764
20
5.5725240535170695
30
0
10
4.7312908358154981
20
3.6185507172983233
30
0
10
5.3372015536592521
20
2.9760226194795791
30
0
0
LINE
5
152
100
AcDbEntity
8
0
100
AcDbLine
10
5.3372015536592521
20
2.9760226194795791
30
0
11
5.6460210652780063
21
2.6485415070045804
31
0
0
LINE
5
153
100
AcDbEntity
8
0
100
AcDbLine
10
5.6460210652780063
20
2.6485415070045804
30
0
11
5.9345454215905136
21
2.8460729232983284
31
0
0
SPLINE
5
154
100
AcDbEntity
8
0
100
AcDbSpline
70
4
71
3
72
8
73
4
74
0
42
0.000000001
43
0.0000000001
44
0.0000000001
40
0
40
0
40
0
40
0
40
1
40
1
40
1
40
1
41
1
41
1
41
1
41
1
10
5.9345454215905136
20
2.8460729232983284
30
0
10
6.3999338595279998
20
3.1646892354608291
30
0
10
7.0449980273530066
20
3.2689251913920758
30
0
10
7.6236828808030044
20
3.1190178618420794
30
0
0
SPLINE
5
155
100
AcDbEntity
8
0
100
AcDbSpline
70
4
71
3
72
8
73
4
74
0
42
0.000000001
43
0.0000000001
44
0.0000000001
40
0
40
0
40
0
40
0
40
1
40
1
40
1
40
1
41
1
41
1
41
1
41
1
10
7.6236828808030044
20
3.1190178618420794
30
0
10
7.9713454774030001
20
3.0289565340983238
30
0
10
8.1091731425155
20
2.9358781999170724
30
0
10
8.7095641481530031
20
2.3857041219608321
30
0
0
SPLINE
5
156
100
AcDbEntity
8
0
100
AcDbSpline
70
4
71
3
72
8
73
4
74
0
42
0.000000001
43
0.0000000001
44
0.0000000001
40
0
40
0
40
0
40
0
40
1
40
1
40
1
40
1
41
1
41
1
41
1
41
1
10
8.7095641481530031
20
2.3857041219608321
30
0
10
9.9334437813654972
20
1.2641917887420773
30
0
10
10.339426418521743
20
0.98663935245458578
30
0
10
10.842490969040499
20
0.92751352676708088
30
0
0
SPLINE
5
157
100
AcDbEntity
8
0
100
AcDbSpline
70
4
71
3
72
8
73
4
74
0
42
0.000000001
43
0.0000000001
44
0.0000000001
40
0
40
0
40
0
40
0
40
1
40
1
40
1
40
1
41
1
41
1
41
1
41
1
10
10.842490969040499
20
0.92751352676708088
30
0
10
11.170088468390492
20
0.88901158464833596
30
0
10
11.505948142677994
20
0.97690940970458495
30
0
10
12.140608487746745
20
1.2672450044295758
30
0
0
SPLINE
5
158
100
AcDbEntity
8
0
100
AcDbSpline
70
4
71
3
72
8
73
4
74
0
42
0.000000001
43
0.0000000001
44
0.0000000001
40
0
40
0
40
0
40
0
40
1
40
1
40
1
40
1
41
1
41
1
41
1
41
1
10
12.140608487746745
20
1.2672450044295758
30
0
10
12.781670240259238
20
1.5605083756545701
30
0
10
12.982641535302983
20
1.6082359173983241
30
0
10
13.476953922140487
20
1.5846017519670808
30
0
0
SPLINE
5
159
100
AcDbEntity
8
0
100
AcDbSpline
70
4
71
3
72
8
73
4
74
0
42
0.000000001
43
0.0000000001
44
0.0000000001
40
0
40
0
40
0
40
0
40
1
40
1
40
1
40
1
41
1
41
1
41
1
41
1
10
13.476953922140487
20
1.5846017519670808
30
0
10
14.02072672197173
20
1.5586035104670826
30
0
10
14.285709375759229
20
1.4280267476670749
30
0
10
14.704316109290474
20
0.97978675189207554
30
0
0
SPLINE
5
160
100
AcDbEntity
8
0
100
AcDbSpline
70
4
71
3
72
8
73
4
74
0
42
0.000000001
43
0.0000000001
44
0.0000000001
40
0
40
0
40
0
40
0
40
1
40
1
40
1
40
1
41
1
41
1
41
1
41
1
10
14.704316109290474
20
0.97978675189207554
30
0
10
14.876375740715471
20
0.79554788059208015
30
0
10
15.098160888571716
20
0.52718224830457849
30
0
10
15.197173530871716
20
0.3834200164358359
30
0
0
SPLINE
5
161
100
AcDbEntity
8
0
100
AcDbSpline
70
4
71
3
72
8
73
4
74
0
42
0.000000001
43
0.0000000001
44
0.0000000001
40
0
40
0
40
0
40
0
40
1
40
1
40
1
40
1
41
1
41
1
41
1
41
1
10
15.197173530871716
20
0.3834200164358359
30
0
10
15.363235358671714
20
0.14230831071083472
30
0
10
15.378463934671721
20
0.094118971710837052
30
0
10
15.393543794109226
20
-0.23790239275791603
30
0
0
SPLINE
5
162
100
AcDbEntity
8
0
100
AcDbSpline
70
4
71
3
72
8
73
4
74
0
42
0.000000001
43
0.0000000001
44
0.0000000001
40
0
40
0
40
0
40
0
40
1
40
1
40
1
40
1
41
1
41
1
41
1
41
1
10
15.393543794109226
20
-0.23790239275791603
30
0
10
15.412481231859211
20
-0.65494566260166032
30
0
10
15.380767101609219
20
-0.82516896777665938
30
0
10
15.284132501802974
20
-0.82516896777665938
30
0
0
SPLINE
5
163
100
AcDbEntity
8
0
100
AcDbSpline
70
4
71
3
72
8
73
4
74
0
42
0.000000001
43
0.0000000001
44
0.0000000001
40
0
40
0
40
0
40
0
40
1
40
1
40
1
40
1
41
1
41
1
41
1
41
1
10
15.284132501802974
20
-0.82516896777665938
30
0
10
15.246348278746717
20
-0.82516896777665938
30
0
10
15.072752340571721
20
-0.75331572003291658
30
0
10
14.89836626483422
20
-0.66549548622666155
30
0
0
SPLINE
5
164
100
AcDbEntity
8
0
100
AcDbSpline
70
4
71
3
72
8
73
4
74
0
42
0.000000001
43
0.0000000001
44
0.0000000001
40
0
40
0
40
0
40
0
40
1
40
1
40
1
40
1
41
1
41
1
41
1
41
1
10
14.89836626483422
20
-0.66549548622666155
30
0
10
14.723976438852965
20
-0.57767525242040652
30
0
10
14.570519309615474
20
-0.50582329786415414
30
0
10
14.557346901740488
20
-0.50582329786415414
30
0
0
SPLINE
5
165
100
AcDbEntity
8
0
100
AcDbSpline
70
4
71
3
72
8
73
4
74
0
42
0.000000001
43
0.0000000001
44
0.0000000001
40
0
40
0
40
0
40
0
40
1
40
1
40
1
40
1
41
1
41
1
41
1
41
1
10
14.557346901740488
20
-0.50582329786415414
30
0
10
14.54417708024048
20
-0.50582329786415414
30
0
10
14.533398362427988
20
-0.71111642553291166
30
0
10
14.533398362427988
20
-0.96203062182666166
30
0
0
SPLINE
5
166
100
AcDbEntity
8
0
100
AcDbSpline
70
4
71
3
72
8
73
4
74
0
42
0.000000001
43
0.0000000001
44
0.0000000001
40
0
40
0
40
0
40
0
40
1
40
1
40
1
40
1
41
1
41
1
41
1
41
1
10
14.533398362427988
20
-0.96203062182666166
30
0
10
14.533398362427988
20
-1.2129448181204117
30
0
10
14.52526421305298
20
-1.4182379457891603
30
0
10
14.515323480740477
20
-1.4182379457891603
30
0
0
SPLINE
5
167
100
AcDbEntity
8
0
100
AcDbSpline
70
4
71
3
72
8
73
4
74
0
42
0.000000001
43
0.0000000001
44
0.0000000001
40
0
40
0
40
0
40
0
40
1
40
1
40
1
40
1
41
1
41
1
41
1
41
1
10
14.515323480740477
20
-1.4182379457891603
30
0
10
14.505378998184227
20
-1.4182379457891603
30
0
10
14.339711592571728
20
-1.3434232986704098
30
0
10
14.147163991584231
20
-1.2519834330516577
30
0
0
SPLINE
5
168
100
AcDbEntity
8
0
100
AcDbSpline
70
4
71
3
72
8
73
4
74
0
42
0.000000001
43
0.0000000001
44
0.0000000001
40
0
40
0
40
0
40
0
40
1
40
1
40
1
40
1
41
1
41
1
41
1
41
1
10
14.147163991584231
20
-1.2519834330516577
30
0
10
13.690180755121713
20
-1.0349623879454084
30
0
10
13.647538026627988
20
-1.0646578525079109
30
0
10
13.70959537905923
20
-1.5567083250891578
30
0
0
SPLINE
5
169
100
AcDbEntity
8
0
100
AcDbSpline
70
4
71
3
72
8
73
4
74
0
42
0.000000001
43
0.0000000001
44
0.0000000001
40
0
40
0
40
0
40
0
40
1
40
1
40
1
40
1
41
1
41
1
41
1
41
1
10
13.70959537905923
20
-1.5567083250891578
30
0
10
13.733218035121721
20
-1.7440094643891557
30
0
10
13.736929483246719
20
-1.9130352779391524
30
0
10
13.717845915309223
20
-1.9323230401829017
30
0
0
SPLINE
5
170
100
AcDbEntity
8
0
100
AcDbSpline
70
4
71
3
72
8
73
4
74
0
42
0.000000001
43
0.0000000001
44
0.0000000001
40
0
40
0
40
0
40
0
40
1
40
1
40
1
40
1
41
1
41
1
41
1
41
1
10
13.717845915309223
20
-1.9323230401829017
30
0
10
13.698763640559228
20
-1.9516109317454111
30
0
10
13.526803584571727
20
-1.8951556675641568
30
0
10
13.335713535215481
20
-1.8068660066954045
30
0
0
SPLINE
5
171
100
AcDbEntity
8
0
100
AcDbSpline
70
4
71
3
72
8
73
4
74
0
42
0.000000001
43
0.0000000001
44
0.0000000001
40
0
40
0
40
0
40
0
40
1
40
1
40
1
40
1
41
1
41
1
41
1
41
1
10
13.335713535215481
20
-1.8068660066954045
30
0
10
13.144623356540484
20
-1.7185776390141561
30
0
10
12.966400522809224
20
-1.6463416077704052
30
0
10
12.939665164434233
20
-1.6463416077704052
30
0
0
SPLINE
5
172
100
AcDbEntity
8
0
100
AcDbSpline
70
4
71
3
72
8
73
4
74
0
42
0.000000001
43
0.0000000001
44
0.0000000001
40
0
40
0
40
0
40
0
40
1
40
1
40
1
40
1
41
1
41
1
41
1
41
1
10
12.939665164434233
20
-1.6463416077704052
30
0
10
12.909791239996729
20
-1.6463416077704052
30
0
10
12.890815135940471
20
-1.7738315320079101
30
0
10
12.890432352440481
20
-1.9770906050579073
30
0
0
SPLINE
5
173
100
AcDbEntity
8
0
100
AcDbSpline
70
4
71
3
72
8
73
4
74
0
42
0.000000001
43
0.0000000001
44
0.0000000001
40
0
40
0
40
0
40
0
40
1
40
1
40
1
40
1
41
1
41
1
41
1
41
1
10
12.890432352440481
20
-1.9770906050579073
30
0
10
12.889397802440484
20
-2.5436492393204047
30
0
10
12.902161433746734
20
-2.5334485763204029
30
0
10
12.452770501096747
20
-2.3258277111516579
30
0
0
SPLINE
5
174
100
AcDbEntity
8
0
100
AcDbSpline
70
4
71
3
72
8
73
4
74
0
42
0.000000001
43
0.0000000001
44
0.0000000001
40
0
40
0
40
0
40
0
40
1
40
1
40
1
40
1
41
1
41
1
41
1
41
1
10
12.452770501096747
20
-2.3258277111516579
30
0
10
12.241271366615486
20
-2.2281158861578998
30
0
10
12.058334735127998
20
-2.1481685778516546
30
0
10
12.046242268134243
20
-2.1481685778516546
30
0
0
SPLINE
5
175
100
AcDbEntity
8
0
100
AcDbSpline
70
4
71
3
72
8
73
4
74
0
42
0.000000001
43
0.0000000001
44
0.0000000001
40
0
40
0
40
0
40
0
40
1
40
1
40
1
40
1
41
1
41
1
41
1
41
1
10
12.046242268134243
20
-2.1481685778516546
30
0
10
12.034150965009239
20
-2.1481685778516546
30
0
10
12.024263253384252
20
-2.3431965124641607
30
0
10
12.024263253384252
20
-2.5815654968204083
30
0
0
SPLINE
5
176
100
AcDbEntity
8
0
100
AcDbSpline
70
4
71
3
72
8
73
4
74
0
42
0.000000001
43
0.0000000001
44
0.0000000001
40
0
40
0
40
0
40
0
40
1
40
1
40
1
40
1
41
1
41
1
41
1
41
1
10
12.024263253384252
20
-2.5815654968204083
30
0
10
12.024263253384252
20
-2.8231364134266546
30
0
10
12.005187444571748
20
-3.0149622864704018
30
0
10
11.981167779946746
20
-3.0149622864704018
30
0
0
SPLINE
5
177
100
AcDbEntity
8
0
100
AcDbSpline
70
4
71
3
72
8
73
4
74
0
42
0.000000001
43
0.0000000001
44
0.0000000001
40
0
40
0
40
0
40
0
40
1
40
1
40
1
40
1
41
1
41
1
41
1
41
1
10
11.981167779946746
20
-3.0149622864704018
30
0
10
11.957467661952986
20
-3.0149622864704018
30
0
10
11.780404688090492
20
-2.9431090387266545
30
0
10
11.587696861171754
20
-2.8552900981079032
30
0
0
SPLINE
5
178
100
AcDbEntity
8
0
100
AcDbSpline
70
4
71
3
72
8
73
4
74
0
42
0.000000001
43
0.0000000001
44
0.0000000001
40
0
40
0
40
0
40
0
40
1
40
1
40
1
40
1
41
1
41
1
41
1
41
1
10
11.587696861171754
20
-2.8552900981079032
30
0
10
11.394987611746741
20
-2.7674698643016526
30
0
10
11.221929639571746
20
-2.695616616557901
30
0
10
11.203120356702989
20
-2.695616616557901
30
0
0
SPLINE
5
179
100
AcDbEntity
8
0
100
AcDbSpline
70
4
71
3
72
8
73
4
74
0
42
0.000000001
43
0.0000000001
44
0.0000000001
40
0
40
0
40
0
40
0
40
1
40
1
40
1
40
1
41
1
41
1
41
1
41
1
10
11.203120356702989
20
-2.695616616557901
30
0
10
11.184312237702997
20
-2.695616616557901
30
0
10
11.179457611827992
20
-2.8803805219829037
30
0
10
11.192335172952998
20
-3.1062030012141539
30
0
0
SPLINE
5
180
100
AcDbEntity
8
0
100
AcDbSpline
70
4
71
3
72
8
73
4
74
0
42
0.000000001
43
0.0000000001
44
0.0000000001
40
0
40
0
40
0
40
0
40
1
40
1
40
1
40
1
41
1
41
1
41
1
41
1
10
11.192335172952998
20
-3.1062030012141539
30
0
10
11.215728805509254
20
-3.5164415184328979
30
0
10
11.215652507446755
20
-3.516789385870398
30
0
10
11.105484829771743
20
-3.516789385870398
30
0
0
SPLINE
5
181
100
AcDbEntity
8
0
100
AcDbSpline
70
4
71
3
72
8
73
4
74
0
42
0.000000001
43
0.0000000001
44
0.0000000001
40
0
40
0
40
0
40
0
40
1
40
1
40
1
40
1
41
1
41
1
41
1
41
1
10
11.105484829771743
20
-3.516789385870398
30
0
10
11.044842224465494
20
-3.516789385870398
30
0
10
10.846965397790495
20
-3.4457392075641513
30
0
10
10.665760473684252
20
-3.3588992098828951
30
0
0
LINE
5
182
100
AcDbEntity
8
0
100
AcDbLine
10
10.665760473684252
20
-3.3588992098828951
30
0
11
10.336298197959257
21
-3.2010077407079018
31
0
0
LINE
5
183
100
AcDbEntity
8
0
100
AcDbLine
10
10.336298197959257
20
-3.2010077407079018
30
0
11
10.336298197959257
21
-3.5604601984266493
31
0
0
SPLINE
5
184
100
AcDbEntity
8
0
100
AcDbSpline
70
4
71
3
72
8
73
4
74
0
42
0.000000001
43
0.0000000001
44
0.0000000001
40
0
40
0
40
0
40
0
40
1
40
1
40
1
40
1
41
1
41
1
41
1
41
1
10
10.336298197959257
20
-3.5604601984266493
30
0
10
10.336298197959257
20
-3.940338552707896
30
0
10
10.311029314209254
20
-4.0642385884453969
30
0
10
10.233557166777999
20
-4.0642385884453969
30
0
0
SPLINE
5
185
100
AcDbEntity
8
0
100
AcDbSpline
70
4
71
3
72
8
73
4
74
0
42
0.000000001
43
0.0000000001
44
0.0000000001
40
0
40
0
40
0
40
0
40
1
40
1
40
1
40
1
41
1
41
1
41
1
41
1
10
10.233557166777999
20
-4.0642385884453969
30
0
10
10.207509913471737
20
-4.0642385884453969
30
0
10
10.033418684484246
20
-3.9907533380766402
30
0
10
9.8466852544967374
20
-3.9009391384641479
30
0
0
SPLINE
5
186
100
AcDbEntity
8
0
100
AcDbSpline
70
4
71
3
72
8
73
4
74
0
42
0.000000001
43
0.0000000001
44
0.0000000001
40
0
40
0
40
0
40
0
40
1
40
1
40
1
40
1
41
1
41
1
41
1
41
1
10
9.8466852544967374
20
-3.9009391384641479
30
0
10
9.659953247015487
20
-3.8111235163454005
30
0
10
9.4969743782154978
20
-3.7478376357891463
30
0
10
9.4845093439030048
20
-3.7603012475953967
30
0
0
SPLINE
5
187
100
AcDbEntity
8
0
100
AcDbSpline
70
4
71
3
72
8
73
4
74
0
42
0.000000001
43
0.0000000001
44
0.0000000001
40
0
40
0
40
0
40
0
40
1
40
1
40
1
40
1
41
1
41
1
41
1
41
1
10
9.4845093439030048
20
-3.7603012475953967
30
0
10
9.4720430164030045
20
-3.7727675750953926
30
0
10
9.4847679814029995
20
-3.9721031172703958
30
0
10
9.5129530029655065
20
-4.20327292681415
30
0
0
SPLINE
5
188
100
AcDbEntity
8
0
100
AcDbSpline
70
4
71
3
72
8
73
4
74
0
42
0.000000001
43
0.0000000001
44
0.0000000001
40
0
40
0
40
0
40
0
40
1
40
1
40
1
40
1
41
1
41
1
41
1
41
1
10
9.5129530029655065
20
-4.20327292681415
30
0
10
9.5410603039592434
20
-4.4344427363578953
30
0
10
9.5559888604592516
20
-4.6316508557766456
30
0
10
9.5461283057717505
20
-4.6415114104641475
30
0
0
SPLINE
5
189
100
AcDbEntity
8
0
100
AcDbSpline
70
4
71
3
72
8
73
4
74
0
42
0.000000001
43
0.0000000001
44
0.0000000001
40
0
40
0
40
0
40
0
40
1
40
1
40
1
40
1
41
1
41
1
41
1
41
1
10
9.5461283057717505
20
-4.6415114104641475
30
0
10
9.536261285146761
20
-4.6513784310891415
30
0
10
9.3575405742279916
20
-4.5863971817203941
30
0
10
9.1489600346155129
20
-4.4971208187891509
30
0
0
SPLINE
5
190
100
AcDbEntity
8
0
100
AcDbSpline
70
4
71
3
72
8
73
4
74
0
42
0.000000001
43
0.0000000001
44
0.0000000001
40
0
40
0
40
0
40
0
40
1
40
1
40
1
40
1
41
1
41
1
41
1
41
1
10
9.1489600346155129
20
-4.4971208187891509
30
0
10
8.8555841560779935
20
-4.3715511486703962
30
0
10
8.7613032868405014
20
-4.3480695793641466
30
0
10
8.7325363309029935
20
-4.3934073106078975
30
0
0
SPLINE
5
191
100
AcDbEntity
8
0
100
AcDbSpline
70
4
71
3
72
8
73
4
74
0
42
0.000000001
43
0.0000000001
44
0.0000000001
40
0
40
0
40
0
40
0
40
1
40
1
40
1
40
1
41
1
41
1
41
1
41
1
10
8.7325363309029935
20
-4.3934073106078975
30
0
10
8.7120832774029999
20
-4.4256413022328944
30
0
10
8.695035186590502
20
-4.6206018617766453
30
0
10
8.6946511099029955
20
-4.8266542198266427
30
0
0
LINE
5
192
100
AcDbEntity
8
0
100
AcDbLine
10
8.6946511099029955
20
-4.8266542198266427
30
0
11
8.6940045161530008
21
-5.2012951647328975
31
0
0
LINE
5
193
100
AcDbEntity
8
0
100
AcDbLine
10
8.6940045161530008
20
-5.2012951647328975
30
0
11
8.3208947052467543
21
-5.0415971126203907
31
0
0
SPLINE
5
194
100
AcDbEntity
8
0
100
AcDbSpline
70
4
71
3
72
8
73
4
74
0
42
0.000000001
43
0.0000000001
44
0.0000000001
40
0
40
0
40
0
40
0
40
1
40
1
40
1
40
1
41
1
41
1
41
1
41
1
10
8.3208947052467543
20
-5.0415971126203907
30
0
10
8.1156843415779925
20
-4.953763946939147
30
0
10
7.9206551137779924
20
-4.892310513070397
30
0
10
7.8874979155967528
20
-4.9050341848828971
30
0
0
SPLINE
5
195
100
AcDbEntity
8
0
100
AcDbSpline
70
4
71
3
72
8
73
4
74
0
42
0.000000001
43
0.0000000001
44
0.0000000001
40
0
40
0
40
0
40
0
40
1
40
1
40
1
40
1
41
1
41
1
41
1
41
1
10
7.8874979155967528
20
-4.9050341848828971
30
0
10
7.8452624118467451
20
-4.9212415745016447
30
0
10
7.8270027336654957
20
-5.0276281012453916
30
0
10
7.8265126156030096
20
-5.2603497357891404
30
0
0
SPLINE
5
196
100
AcDbEntity
8
0
100
AcDbSpline
70
4
71
3
72
8
73
4
74
0
42
0.000000001
43
0.0000000001
44
0.0000000001
40
0
40
0
40
0
40
0
40
1
40
1
40
1
40
1
41
1
41
1
41
1
41
1
10
7.8265126156030096
20
-5.2603497357891404
30
0
10
7.8254780656029999
20
-5.7500272093078975
30
0
10
7.807872610977995
20
-5.7621689467453985
30
0
10
7.394997284446756
20
-5.5578728666391397
30
0
0
SPLINE
5
197
100
AcDbEntity
8
0
100
AcDbSpline
70
4
71
3
72
8
73
4
74
0
42
0.000000001
43
0.0000000001
44
0.0000000001
40
0
40
0
40
0
40
0
40
1
40
1
40
1
40
1
41
1
41
1
41
1
41
1
10
7.394997284446756
20
-5.5578728666391397
30
0
10
7.2053310345280064
20
-5.4640237927078994
30
0
10
7.0301832713530032
20
-5.3872383278391478
30
0
10
7.0057808232280117
20
-5.3872383278391478
30
0
0
SPLINE
5
198
100
AcDbEntity
8
0
100
AcDbSpline
70
4
71
3
72
8
73
4
74
0
42
0.000000001
43
0.0000000001
44
0.0000000001
40
0
40
0
40
0
40
0
40
1
40
1
40
1
40
1
41
1
41
1
41
1
41
1
10
7.0057808232280117
20
-5.3872383278391478
30
0
10
6.9782179541717593
20
-5.3872383278391478
30
0
10
6.9722744644217372
20
-5.5402518937641476
30
0
10
6.990086829046751
20
-5.7912010061203922
30
0
0
SPLINE
5
199
100
AcDbEntity
8
0
100
AcDbSpline
70
4
71
3
72
8
73
4
74
0
42
0.000000001
43
0.0000000001
44
0.0000000001
40
0
40
0
40
0
40
0
40
1
40
1
40
1
40
1
41
1
41
1
41
1
41
1
10
6.990086829046751
20
-5.7912010061203922
30
0
10
7.0106406218530015
20
-6.0807593951578864
30
0
10
7.0034246356030039
20
-6.2046414555891349
30
0
10
6.9646084489217497
20
-6.2286312475828876
30
0
0
SPLINE
5
200
100
AcDbEntity
8
0
100
AcDbSpline
70
4
71
3
72
8
73
4
74
0
42
0.000000001
43
0.0000000001
44
0.0000000001
40
0
40
0
40
0
40
0
40
1
40
1
40
1
40
1
41
1
41
1
41
1
41
1
10
6.9646084489217497
20
-6.2286312475828876
30
0
10
6.9348237544217461
20
-6.2470384784578892
30
0
10
6.75533230375299
20
-6.188431350276633
30
0
10
6.5657357566404961
20
-6.0983932999078849
30
0
0
SPLINE
5
201
100
AcDbEntity
8
0
100
AcDbSpline
70
4
71
3
72
8
73
4
74
0
42
0.000000001
43
0.0000000001
44
0.0000000001
40
0
40
0
40
0
40
0
40
1
40
1
40
1
40
1
41
1
41
1
41
1
41
1
10
6.5657357566404961
20
-6.0983932999078849
30
0
10
6.3761393388467447
20
-6.0083552495391412
30
0
10
6.2128824347342437
20
-5.9346863665453897
30
0
10
6.2029404092342499
20
-5.9346863665453897
30
0
0
SPLINE
5
202
100
AcDbEntity
8
0
100
AcDbSpline
70
4
71
3
72
8
73
4
74
0
42
0.000000001
43
0.0000000001
44
0.0000000001
40
0
40
0
40
0
40
0
40
1
40
1
40
1
40
1
41
1
41
1
41
1
41
1
10
6.2029404092342499
20
-5.9346863665453897
30
0
10
6.1929957973592398
20
-5.9346863665453897
30
0
10
6.184865527546739
20
-6.0508338725391342
30
0
10
6.184865527546739
20
-6.1927919785266372
30
0
0
SPLINE
5
203
100
AcDbEntity
8
0
100
AcDbSpline
70
4
71
3
72
8
73
4
74
0
42
0.000000001
43
0.0000000001
44
0.0000000001
40
0
40
0
40
0
40
0
40
1
40
1
40
1
40
1
41
1
41
1
41
1
41
1
10
6.184865527546739
20
-6.1927919785266372
30
0
10
6.184865527546739
20
-6.4264822105078911
30
0
10
6.2032055126717367
20
-6.4747451318766336
30
0
10
6.378754163971756
20
-6.7030194946078847
30
0
0
SPLINE
5
204
100
AcDbEntity
8
0
100
AcDbSpline
70
4
71
3
72
8
73
4
74
0
42
0.000000001
43
0.0000000001
44
0.0000000001
40
0
40
0
40
0
40
0
40
1
40
1
40
1
40
1
41
1
41
1
41
1
41
1
10
6.378754163971756
20
-6.7030194946078847
30
0
10
6.485391439771746
20
-6.8416877315953917
30
0
10
7.7017537740467512
20
-8.0513358363703791
30
0
10
9.0817803664967478
20
-9.3911276154516266
30
0
0
SPLINE
5
205
100
AcDbEntity
8
0
100
AcDbSpline
70
4
71
3
72
8
73
4
74
0
42
0.000000001
43
0.0000000001
44
0.0000000001
40
0
40
0
40
0
40
0
40
1
40
1
40
1
40
1
41
1
41
1
41
1
41
1
10
9.0817803664967478
20
-9.3911276154516266
30
0
10
10.461806958946745
20
-10.730919265214123
30
0
10
11.596968886227991
20
-11.853199881126613
30
0
10
11.604362039165492
20
-11.885084582807867
30
0
0
SPLINE
5
206
100
AcDbEntity
8
0
100
AcDbSpline
70
4
71
3
72
8
73
4
74
0
42
0.000000001
43
0.0000000001
44
0.0000000001
40
0
40
0
40
0
40
0
40
1
40
1
40
1
40
1
41
1
41
1
41
1
41
1
10
7.2178943510905036
20
-16.245376992014112
30
0
10
7.1891933477155057
20
-16.245635629514105
30
0
10
7.1143877529092503
20
-16.18606507664536
30
0
10
7.0516592361654951
20
-16.113069944339109
30
0
0
SPLINE
5
207
100
AcDbEntity
8
0
100
AcDbSpline
70
4
71
3
72
8
73
4
74
0
42
0.000000001
43
0.0000000001
44
0.0000000001
40
0
40
0
40
0
40
0
40
1
40
1
40
1
40
1
41
1
41
1
41
1
41
1
10
7.0516592361654951
20
-16.113069944339109
30
0
10
6.9144135054279943
20
-15.953361546726605
30
0
10
4.1755000565905043
20
-12.953214265345366
30
0
10
2.4866322269717678
20
-11.112636532120375
30
0
0
SPLINE
5
208
100
AcDbEntity
8
0
100
AcDbSpline
70
4
71
3
72
8
73
4
74
0
42
0.000000001
43
0.0000000001
44
0.0000000001
40
0
40
0
40
0
40
0
40
1
40
1
40
1
40
1
41
1
41
1
41
1
41
1
10
2.4866322269717678
20
-11.112636532120375
30
0
10
1.8189586154905157
20
-10.384985789620366
30
0
10
1.2368844469217777
20
-9.7600824149203724
30
0
10
1.1931341033342768
20
-9.7239625241766205
30
0
0
SPLINE
5
209
100
AcDbEntity
8
0
100
AcDbSpline
70
4
71
3
72
8
73
4
74
0
42
0.000000001
43
0.0000000001
44
0.0000000001
40
0
40
0
40
0
40
0
40
1
40
1
40
1
40
1
41
1
41
1
41
1
41
1
10
1.1931341033342768
20
-9.7239625241766205
30
0
10
1.1192749924592693
20
-9.6629835608016279
30
0
10
1.1158453298905169
20
-9.6703223998641228
30
0
10
1.1451652528030287
20
-9.8266090233516188
30
0
0
SPLINE
5
210
100
AcDbEntity
8
0
100
AcDbSpline
70
4
71
3
72
8
73
4
74
0
42
0.000000001
43
0.0000000001
44
0.0000000001
40
0
40
0
40
0
40
0
40
1
40
1
40
1
40
1
41
1
41
1
41
1
41
1
10
1.1451652528030287
20
-9.8266090233516188
30
0
10
1.184586004640531
20
-10.036740094776624
30
0
10
1.1265715442905133
20
-10.043981815457874
30
0
10
0.71038074364677684
20
-9.8808776367891227
30
0
0
SPLINE
5
211
100
AcDbEntity
8
0
100
AcDbSpline
70
4
71
3
72
8
73
4
74
0
42
0.000000001
43
0.0000000001
44
0.0000000001
40
0
40
0
40
0
40
0
40
1
40
1
40
1
40
1
41
1
41
1
41
1
41
1
10
0.71038074364677684
20
-9.8808776367891227
30
0
10
0.27610174148428257
20
-9.7106853681141203
30
0
10
0.28819123414677073
20
-9.7018037563641268
30
0
10
0.30666040870301892
20
-10.177434756576623
30
0
0
SPLINE
5
212
100
AcDbEntity
8
0
100
AcDbSpline
70
4
71
3
72
8
73
4
74
0
42
0.000000001
43
0.0000000001
44
0.0000000001
40
0
40
0
40
0
40
0
40
1
40
1
40
1
40
1
41
1
41
1
41
1
41
1
10
0.30666040870301892
20
-10.177434756576623
30
0
10
0.31543080632801868
20
-10.403270167682873
30
0
10
0.3123400882030225
20
-10.587688662726627
30
0
10
0.2997948762655156
20
-10.587254151726619
30
0
0
SPLINE
5
213
100
AcDbEntity
8
0
100
AcDbSpline
70
4
71
3
72
8
73
4
74
0
42
0.000000001
43
0.0000000001
44
0.0000000001
40
0
40
0
40
0
40
0
40
1
40
1
40
1
40
1
41
1
41
1
41
1
41
1
10
0.2997948762655156
20
-10.587254151726619
30
0
10
0.28724966432802645
20
-10.586736876726626
30
0
10
0.10249144892801709
20
-10.515704803045374
30
0
10
-0.11077844719697971
20
-10.429223018301625
30
0
0
SPLINE
5
214
100
AcDbEntity
8
0
100
AcDbSpline
70
4
71
3
72
8
73
4
74
0
42
0.000000001
43
0.0000000001
44
0.0000000001
40
0
40
0
40
0
40
0
40
1
40
1
40
1
40
1
41
1
41
1
41
1
41
1
10
-0.11077844719697971
20
-10.429223018301625
30
0
10
-0.56736273531573289
20
-10.244076458695371
30
0
10
-0.55883493966573106
20
-10.237512238945378
30
0
10
-0.56379172735322669
20
-10.777886542026618
30
0
0
LINE
5
215
100
AcDbEntity
8
0
100
AcDbLine
10
-0.56379172735322669
20
-10.777886542026618
30
0
11
-0.5669975391657367
21
-11.12744740855787
31
0
0
LINE
5
216
100
AcDbEntity
8
0
100
AcDbLine
10
-0.5669975391657367
20
-11.12744740855787
30
0
11
-0.95503732907823213
21
-10.969245574382867
31
0
0
SPLINE
5
217
100
AcDbEntity
8
0
100
AcDbSpline
70
4
71
3
72
8
73
4
74
0
42
0.000000001
43
0.0000000001
44
0.0000000001
40
0
40
0
40
0
40
0
40
1
40
1
40
1
40
1
41
1
41
1
41
1
41
1
10
-0.95503732907823213
20
-10.969245574382867
30
0
10
-1.1684586574594835
20
-10.882233582764123
30
0
10
-1.3646893857657272
20
-10.82439978070787
30
0
10
-1.3911045509157294
20
-10.840724979707868
30
0
0
SPLINE
5
218
100
AcDbEntity
8
0
100
AcDbSpline
70
4
71
3
72
8
73
4
74
0
42
0.000000001
43
0.0000000001
44
0.0000000001
40
0
40
0
40
0
40
0
40
1
40
1
40
1
40
1
41
1
41
1
41
1
41
1
10
-1.3911045509157294
20
-10.840724979707868
30
0
10
-1.4175203626594701
20
-10.857051471895375
30
0
10
-1.4289451569469769
20
-10.92491006345162
30
0
10
-1.416493830421981
20
-10.991523315445368
30
0
0
SPLINE
5
219
100
AcDbEntity
8
0
100
AcDbSpline
70
4
71
3
72
8
73
4
74
0
42
0.000000001
43
0.0000000001
44
0.0000000001
40
0
40
0
40
0
40
0
40
1
40
1
40
1
40
1
41
1
41
1
41
1
41
1
10
-1.416493830421981
20
-10.991523315445368
30
0
10
-1.4040430211719812
20
-11.058135274251617
30
0
10
-1.3808344437469788
20
-11.230679850989116
30
0
10
-1.3649197024594706
20
-11.37495534897662
30
0
0
SPLINE
5
220
100
AcDbEntity
8
0
100
AcDbSpline
70
4
71
3
72
8
73
4
74
0
42
0.000000001
43
0.0000000001
44
0.0000000001
40
0
40
0
40
0
40
0
40
1
40
1
40
1
40
1
41
1
41
1
41
1
41
1
10
-1.3649197024594706
20
-11.37495534897662
30
0
10
-1.3291457393719774
20
-11.699268152076616
30
0
10
-1.3610103966469822
20
-11.706181532451616
30
0
10
-1.8379767422719784
20
-11.477601977470364
30
0
0
SPLINE
5
221
100
AcDbEntity
8
0
100
AcDbSpline
70
4
71
3
72
8
73
4
74
0
42
0.000000001
43
0.0000000001
44
0.0000000001
40
0
40
0
40
0
40
0
40
1
40
1
40
1
40
1
41
1
41
1
41
1
41
1
10
-1.8379767422719784
20
-11.477601977470364
30
0
10
-2.0212259371782171
20
-11.389781743664127
30
0
10
-2.1789496799344654
20
-11.31792978910787
30
0
10
-2.188473876553223
20
-11.31792978910787
30
0
0
SPLINE
5
222
100
AcDbEntity
8
0
100
AcDbSpline
70
4
71
3
72
8
73
4
74
0
42
0.000000001
43
0.0000000001
44
0.0000000001
40
0
40
0
40
0
40
0
40
1
40
1
40
1
40
1
41
1
41
1
41
1
41
1
10
-2.188473876553223
20
-11.31792978910787
30
0
10
-2.1979980731719717
20
-11.31792978910787
30
0
10
-2.2117221548344812
20
-11.497560904026622
30
0
10
-2.2189721519157235
20
-11.717111553201608
30
0
0
SPLINE
5
223
100
AcDbEntity
8
0
100
AcDbSpline
70
4
71
3
72
8
73
4
74
0
42
0.000000001
43
0.0000000001
44
0.0000000001
40
0
40
0
40
0
40
0
40
1
40
1
40
1
40
1
41
1
41
1
41
1
41
1
10
-2.2189721519157235
20
-11.717111553201608
30
0
10
-2.2311488054157103
20
-12.085852976732866
30
0
10
-2.2396260374344745
20
-12.117357481289108
30
0
10
-2.3301479985657192
20
-12.130260906164123
30
0
0
SPLINE
5
224
100
AcDbEntity
8
0
100
AcDbSpline
70
4
71
3
72
8
73
4
74
0
42
0.000000001
43
0.0000000001
44
0.0000000001
40
0
40
0
40
0
40
0
40
1
40
1
40
1
40
1
41
1
41
1
41
1
41
1
10
-2.3301479985657192
20
-12.130260906164123
30
0
10
-2.3840453378719673
20
-12.137942439914116
30
0
10
-2.5665168098157309
20
-12.081487175732875
30
0
10
-2.7356392244719707
20
-12.004803872676622
30
0
0
SPLINE
5
225
100
AcDbEntity
8
0
100
AcDbSpline
70
4
71
3
72
8
73
4
74
0
42
0.000000001
43
0.0000000001
44
0.0000000001
40
0
40
0
40
0
40
0
40
1
40
1
40
1
40
1
41
1
41
1
41
1
41
1
10
-2.7356392244719707
20
-12.004803872676622
30
0
10
-2.9047621564032244
20
-11.92811927643287
30
0
10
-3.0556933024969712
20
-11.865331273064111
30
0
10
-3.0710414983407119
20
-11.865273079626615
30
0
0
SPLINE
5
226
100
AcDbEntity
8
0
100
AcDbSpline
70
4
71
3
72
8
73
4
74
0
42
0.000000001
43
0.0000000001
44
0.0000000001
40
0
40
0
40
0
40
0
40
1
40
1
40
1
40
1
41
1
41
1
41
1
41
1
10
-3.0710414983407119
20
-11.865273079626615
30
0
10
-3.0863891769094742
20
-11.86523945675162
30
0
10
-3.0923573665407211
20
-12.049979955482865
30
0
10
-3.0843040413844669
20
-12.275859334964112
30
0
0
SPLINE
5
227
100
AcDbEntity
8
0
100
AcDbSpline
70
4
71
3
72
8
73
4
74
0
42
0.000000001
43
0.0000000001
44
0.0000000001
40
0
40
0
40
0
40
0
40
1
40
1
40
1
40
1
41
1
41
1
41
1
41
1
10
-3.0843040413844669
20
-12.275859334964112
30
0
10
-3.0673047037407208
20
-12.752646444801613
30
0
10
-3.0531124882032223
20
-12.742642346301615
30
0
10
-3.5051430751782142
20
-12.572499218751613
30
0
0
SPLINE
5
228
100
AcDbEntity
8
0
100
AcDbSpline
70
4
71
3
72
8
73
4
74
0
42
0.000000001
43
0.0000000001
44
0.0000000001
40
0
40
0
40
0
40
0
40
1
40
1
40
1
40
1
41
1
41
1
41
1
41
1
10
-3.5051430751782142
20
-12.572499218751613
30
0
10
-3.6717973121719716
20
-12.509770702007867
30
0
10
-3.8312413822594671
20
-12.458446805826618
30
0
10
-3.8594637769407214
20
-12.458446805826618
30
0
0
SPLINE
5
229
100
AcDbEntity
8
0
100
AcDbSpline
70
4
71
3
72
8
73
4
74
0
42
0.000000001
43
0.0000000001
44
0.0000000001
40
0
40
0
40
0
40
0
40
1
40
1
40
1
40
1
41
1
41
1
41
1
41
1
10
-3.8594637769407214
20
-12.458446805826618
30
0
10
-3.8959606318407136
20
-12.458446805826618
30
0
10
-3.9020842626094776
20
-12.582101135939116
30
0
10
-3.8806721812594791
20
-12.886712227476615
30
0
0
LINE
5
230
100
AcDbEntity
8
0
100
AcDbLine
10
-3.8806721812594791
20
-12.886712227476615
30
0
11
-3.8505680694469824
21
-13.31497907163287
31
0
0
LINE
5
231
100
AcDbEntity
8
0
100
AcDbLine
10
-3.8505680694469824
20
-13.31497907163287
30
0
11
-4.2731198007657234
21
-13.140295562770369
31
0
0
LINE
5
232
100
AcDbEntity
8
0
100
AcDbLine
10
-4.2731198007657234
20
-13.140295562770369
30
0
11
-4.6956714027657043
21
-12.965610760720367
31
0
0
LINE
5
233
100
AcDbEntity
8
0
100
AcDbLine
10
-4.6956714027657043
20
-12.965610760720367
30
0
11
-4.7412922127532031
21
-13.393462491689112
31
0
0
LINE
5
234
100
AcDbEntity
8
0
100
AcDbLine
10
-4.7412922127532031
20
-13.393462491689112
30
0
11
-4.7869139279719608
21
-13.82131409333911
31
0
0
LINE
5
235
100
AcDbEntity
8
0
100
AcDbLine
10
-4.7869139279719608
20
-13.82131409333911
30
0
11
-5.1674594376844585
21
-13.657176528539114
31
0
0
SPLINE
5
236
100
AcDbEntity
8
0
100
AcDbSpline
70
4
71
3
72
8
73
4
74
0
42
0.000000001
43
0.0000000001
44
0.0000000001
40
0
40
0
40
0
40
0
40
1
40
1
40
1
40
1
41
1
41
1
41
1
41
1
10
-5.1674594376844585
20
-13.657176528539114
30
0
10
-5.4352132629657035
20
-13.54168867748912
30
0
10
-5.5576347974344564
20
-13.508619286739112
30
0
10
-5.5804934383219607
20
-13.545605742426613
30
0
0
SPLINE
5
237
100
AcDbEntity
8
0
100
AcDbSpline
70
4
71
3
72
8
73
4
74
0
42
0.000000001
43
0.0000000001
44
0.0000000001
40
0
40
0
40
0
40
0
40
1
40
1
40
1
40
1
41
1
41
1
41
1
41
1
10
-5.5804934383219607
20
-13.545605742426613
30
0
10
-5.5983621859219479
20
-13.574517406045356
30
0
10
-5.5982156677782058
20
-13.716394041220363
30
0
10
-5.5801856596969479
20
-13.860888217214114
30
0
0
SPLINE
5
238
100
AcDbEntity
8
0
100
AcDbSpline
70
4
71
3
72
8
73
4
74
0
42
0.000000001
43
0.0000000001
44
0.0000000001
40
0
40
0
40
0
40
0
40
1
40
1
40
1
40
1
41
1
41
1
41
1
41
1
10
-5.5801856596969479
20
-13.860888217214114
30
0
10
-5.5257172487907091
20
-14.296981302801601
30
0
10
-5.5293804610219599
20
-14.328895747795354
30
0
10
-5.633904668446954
20
-14.328895747795354
30
0
0
SPLINE
5
239
100
AcDbEntity
8
0
100
AcDbSpline
70
4
71
3
72
8
73
4
74
0
42
0.000000001
43
0.0000000001
44
0.0000000001
40
0
40
0
40
0
40
0
40
1
40
1
40
1
40
1
41
1
41
1
41
1
41
1
10
-5.633904668446954
20
-14.328895747795354
30
0
10
-5.6857320025219504
20
-14.328895747795354
30
0
10
-5.8800122161219548
20
-14.258724936989111
30
0
10
-6.0656389362469554
20
-14.172961000626607
30
0
0
LINE
5
240
100
AcDbEntity
8
0
100
AcDbLine
10
-6.0656389362469554
20
-14.172961000626607
30
0
11
-6.403141605253202
21
-14.017024830951605
31
0
0
LINE
5
241
100
AcDbEntity
8
0
100
AcDbLine
10
-6.403141605253202
20
-14.017024830951605
30
0
11
-6.4162092649406954
21
-14.435279688164107
31
0
0
SPLINE
5
242
100
AcDbEntity
8
0
100
AcDbSpline
70
4
71
3
72
8
73
4
74
0
42
0.000000001
43
0.0000000001
44
0.0000000001
40
0
40
0
40
0
40
0
40
1
40
1
40
1
40
1
41
1
41
1
41
1
41
1
10
-6.4162092649406954
20
-14.435279688164107
30
0
10
-6.4292098081969584
20
-14.851393156195357
30
0
10
-6.4298609281031993
20
-14.853470015320354
30
0
10
-6.5433288202781981
20
-14.840849798507856
30
0
0
SPLINE
5
243
100
AcDbEntity
8
0
100
AcDbSpline
70
4
71
3
72
8
73
4
74
0
42
0.000000001
43
0.0000000001
44
0.0000000001
40
0
40
0
40
0
40
0
40
1
40
1
40
1
40
1
41
1
41
1
41
1
41
1
10
-6.5433288202781981
20
-14.840849798507856
30
0
10
-6.606057207703202
20
-14.83387951788286
30
0
10
-6.7879934293407018
20
-14.767153758576605
30
0
10
-6.9476318655094538
20
-14.692582230707858
30
0
0
SPLINE
5
244
100
AcDbEntity
8
0
100
AcDbSpline
70
4
71
3
72
8
73
4
74
0
42
0.000000001
43
0.0000000001
44
0.0000000001
40
0
40
0
40
0
40
0
40
1
40
1
40
1
40
1
41
1
41
1
41
1
41
1
10
-6.9476318655094538
20
-14.692582230707858
30
0
10
-7.1072637064219535
20
-14.618011996026606
30
0
10
-7.2458365061719476
20
-14.556999539095354
30
0
10
-7.2555650264157023
20
-14.556999539095354
30
0
0
SPLINE
5
245
100
AcDbEntity
8
0
100
AcDbSpline
70
4
71
3
72
8
73
4
74
0
42
0.000000001
43
0.0000000001
44
0.0000000001
40
0
40
0
40
0
40
0
40
1
40
1
40
1
40
1
41
1
41
1
41
1
41
1
10
-7.2555650264157023
20
-14.556999539095354
30
0
10
-7.2652935466594482
20
-14.556999539095354
30
0
10
-7.2732535036782053
20
-14.740551598514111
30
0
10
-7.2732535036782053
20
-14.964893378057859
30
0
0
SPLINE
5
246
100
AcDbEntity
8
0
100
AcDbSpline
70
4
71
3
72
8
73
4
74
0
42
0.000000001
43
0.0000000001
44
0.0000000001
40
0
40
0
40
0
40
0
40
1
40
1
40
1
40
1
41
1
41
1
41
1
41
1
10
-7.2732535036782053
20
-14.964893378057859
30
0
10
-7.2732535036782053
20
-15.189235157601612
30
0
10
-7.2886504526907014
20
-15.3821086418391
30
0
10
-7.3074690465094516
20
-15.393502916901603
30
0
0
SPLINE
5
247
100
AcDbEntity
8
0
100
AcDbSpline
70
4
71
3
72
8
73
4
74
0
42
0.000000001
43
0.0000000001
44
0.0000000001
40
0
40
0
40
0
40
0
40
1
40
1
40
1
40
1
41
1
41
1
41
1
41
1
10
-7.3074690465094516
20
-15.393502916901603
30
0
10
-7.3262875110094505
20
-15.404895769457859
30
0
10
-7.4853900502782
20
-15.355858228776608
30
0
10
-7.6610297419781848
20
-15.284530015157856
30
0
0
SPLINE
5
248
100
AcDbEntity
8
0
100
AcDbSpline
70
4
71
3
72
8
73
4
74
0
42
0.000000001
43
0.0000000001
44
0.0000000001
40
0
40
0
40
0
40
0
40
1
40
1
40
1
40
1
41
1
41
1
41
1
41
1
10
-7.6610297419781848
20
-15.284530015157856
30
0
10
-8.1321682088157043
20
-15.093198139739101
30
0
10
-8.1128685492469366
20
-15.079293787739108
30
0
10
-8.0773563273094418
20
-15.58449209763285
30
0
0
LINE
5
249
100
AcDbEntity
8
0
100
AcDbLine
10
-8.0773563273094418
20
-15.58449209763285
30
0
11
-8.046819644278207
21
-16.018915678157857
31
0
0
LINE
5
250
100
AcDbEntity
8
0
100
AcDbLine
10
-8.046819644278207
20
-16.018915678157857
30
0
11
-8.2188902677969455
21
-15.945647683289108
31
0
0
SPLINE
5
251
100
AcDbEntity
8
0
100
AcDbSpline
70
4
71
3
72
8
73
4
74
0
42
0.000000001
43
0.0000000001
44
0.0000000001
40
0
40
0
40
0
40
0
40
1
40
1
40
1
40
1
41
1
41
1
41
1
41
1
10
-8.2188902677969455
20
-15.945647683289108
30
0
10
-8.572957246171935
20
-15.794882970426606
30
0
10
-8.8291070413781991
20
-15.697516555814101
30
0
10
-8.8716670058719327
20
-15.697516555814101
30
0
0
SPLINE
5
252
100
AcDbEntity
8
0
100
AcDbSpline
70
4
71
3
72
8
73
4
74
0
42
0.000000001
43
0.0000000001
44
0.0000000001
40
0
40
0
40
0
40
0
40
1
40
1
40
1
40
1
41
1
41
1
41
1
41
1
10
-8.8716670058719327
20
-15.697516555814101
30
0
10
-8.8965745730344548
20
-15.697516555814101
30
0
10
-8.9155991716219418
20
-15.87531651723285
30
0
10
-8.9155991716219418
20
-16.1081028111516
30
0
0
SPLINE
5
253
100
AcDbEntity
8
0
100
AcDbSpline
70
4
71
3
72
8
73
4
74
0
42
0.000000001
43
0.0000000001
44
0.0000000001
40
0
40
0
40
0
40
0
40
1
40
1
40
1
40
1
41
1
41
1
41
1
41
1
10
-8.9155991716219418
20
-16.1081028111516
30
0
10
-8.9155991716219418
20
-16.333925290382851
30
0
10
-8.931619178371939
20
-16.51869048899535
30
0
10
-8.9511995889469453
20
-16.51869048899535
30
0
0
SPLINE
5
254
100
AcDbEntity
8
0
100
AcDbSpline
70
4
71
3
72
8
73
4
74
0
42
0.000000001
43
0.0000000001
44
0.0000000001
40
0
40
0
40
0
40
0
40
1
40
1
40
1
40
1
41
1
41
1
41
1
41
1
10
-8.9511995889469453
20
-16.51869048899535
30
0
10
-8.9707798702031916
20
-16.51869048899535
30
0
10
-9.1571693123156983
20
-16.446838534439095
30
0
10
-9.3653981049281931
20
-16.359017007445345
30
0
0
SPLINE
5
255
100
AcDbEntity
8
0
100
AcDbSpline
70
4
71
3
72
8
73
4
74
0
42
0.000000001
43
0.0000000001
44
0.0000000001
40
0
40
0
40
0
40
0
40
1
40
1
40
1
40
1
41
1
41
1
41
1
41
1
10
-9.3653981049281931
20
-16.359017007445345
30
0
10
-9.5736270268594481
20
-16.271198066826603
30
0
10
-9.7556740746656878
20
-16.19934481908285
30
0
10
-9.7699471144219441
20
-16.19934481908285
30
0
0
SPLINE
5
256
100
AcDbEntity
8
0
100
AcDbSpline
70
4
71
3
72
8
73
4
74
0
42
0.000000001
43
0.0000000001
44
0.0000000001
40
0
40
0
40
0
40
0
40
1
40
1
40
1
40
1
41
1
41
1
41
1
41
1
10
-9.7699471144219441
20
-16.19934481908285
30
0
10
-9.7842196369031953
20
-16.19934481908285
30
0
10
-9.7839275058469521
20
-16.384107431320345
30
0
10
-9.7693005206719441
20
-16.6099299105516
30
0
0
SPLINE
5
257
100
AcDbEntity
8
0
100
AcDbSpline
70
4
71
3
72
8
73
4
74
0
42
0.000000001
43
0.0000000001
44
0.0000000001
40
0
40
0
40
0
40
0
40
1
40
1
40
1
40
1
41
1
41
1
41
1
41
1
10
-9.7693005206719441
20
-16.6099299105516
30
0
10
-9.7433931902532045
20
-17.009817755020347
30
0
10
-9.7452972795282022
20
-17.020516165889099
30
0
10
-9.842384236321946
20
-17.020482543014101
30
0
0
SPLINE
5
258
100
AcDbEntity
8
0
100
AcDbSpline
70
4
71
3
72
8
73
4
74
0
42
0.000000001
43
0.0000000001
44
0.0000000001
40
0
40
0
40
0
40
0
40
1
40
1
40
1
40
1
41
1
41
1
41
1
41
1
10
-9.842384236321946
20
-17.020482543014101
30
0
10
-9.897210084253194
20
-17.02046185201409
30
0
10
-10.072219476365687
20
-16.958873926645342
30
0
10
-10.231293694828194
20
-16.88361959577659
30
0
0
SPLINE
5
259
100
AcDbEntity
8
0
100
AcDbSpline
70
4
71
3
72
8
73
4
74
0
42
0.000000001
43
0.0000000001
44
0.0000000001
40
0
40
0
40
0
40
0
40
1
40
1
40
1
40
1
41
1
41
1
41
1
41
1
10
-10.231293694828194
20
-16.88361959577659
30
0
10
-10.390365714871947
20
-16.80836655809534
30
0
10
-10.539203319721944
20
-16.746791564601594
30
0
10
-10.562042045521949
20
-16.746791564601594
30
0
0
SPLINE
5
260
100
AcDbEntity
8
0
100
AcDbSpline
70
4
71
3
72
8
73
4
74
0
42
0.000000001
43
0.0000000001
44
0.0000000001
40
0
40
0
40
0
40
0
40
1
40
1
40
1
40
1
41
1
41
1
41
1
41
1
10
-10.562042045521949
20
-16.746791564601594
30
0
10
-10.584880254046949
20
-16.746791564601594
30
0
10
-10.603566425465702
20
-16.931555470026591
30
0
10
-10.603566425465702
20
-17.157377949257842
30
0
0
SPLINE
5
261
100
AcDbEntity
8
0
100
AcDbSpline
70
4
71
3
72
8
73
4
74
0
42
0.000000001
43
0.0000000001
44
0.0000000001
40
0
40
0
40
0
40
0
40
1
40
1
40
1
40
1
41
1
41
1
41
1
41
1
10
-10.603566425465702
20
-17.157377949257842
30
0
10
-10.603566425465702
20
-17.643724171776583
30
0
10
-10.593563620153192
20
-17.638585044651592
30
0
10
-11.091998559421956
20
-17.408294602607846
30
0
0
SPLINE
5
262
100
AcDbEntity
8
0
100
AcDbSpline
70
4
71
3
72
8
73
4
74
0
42
0.000000001
43
0.0000000001
44
0.0000000001
40
0
40
0
40
0
40
0
40
1
40
1
40
1
40
1
41
1
41
1
41
1
41
1
10
-11.091998559421956
20
-17.408294602607846
30
0
10
-11.282073068634455
20
-17.320473075614096
30
0
10
-11.444962190221952
20
-17.248621121057841
30
0
10
-11.453974284590682
20
-17.248621121057841
30
0
0
SPLINE
5
263
100
AcDbEntity
8
0
100
AcDbSpline
70
4
71
3
72
8
73
4
74
0
42
0.000000001
43
0.0000000001
44
0.0000000001
40
0
40
0
40
0
40
0
40
1
40
1
40
1
40
1
41
1
41
1
41
1
41
1
10
-11.453974284590682
20
-17.248621121057841
30
0
10
-11.462986508278199
20
-17.248621121057841
30
0
10
-11.470639850540696
20
-17.407723013732838
30
0
10
-11.470982415909452
20
-17.602180652657839
30
0
0
SPLINE
5
264
100
AcDbEntity
8
0
100
AcDbSpline
70
4
71
3
72
8
73
4
74
0
42
0.000000001
43
0.0000000001
44
0.0000000001
40
0
40
0
40
0
40
0
40
1
40
1
40
1
40
1
41
1
41
1
41
1
41
1
10
-11.470982415909452
20
-17.602180652657839
30
0
10
-11.471616077784441
20
-17.959800663689094
30
0
10
-11.502703917328194
20
-18.16401527298283
30
0
10
-11.555516660278196
20
-18.157431784739096
30
0
0
SPLINE
5
265
100
AcDbEntity
8
0
100
AcDbSpline
70
4
71
3
72
8
73
4
74
0
42
0.000000001
43
0.0000000001
44
0.0000000001
40
0
40
0
40
0
40
0
40
1
40
1
40
1
40
1
41
1
41
1
41
1
41
1
10
-11.555516660278196
20
-18.157431784739096
30
0
10
-11.571408770784446
20
-18.155453207864092
30
0
10
-11.728116844078196
20
-18.105369349176588
30
0
10
-11.903756535778198
20
-18.046138904620346
30
0
0
LINE
5
266
100
AcDbEntity
8
0
100
AcDbLine
10
-11.903756535778198
20
-18.046138904620346
30
0
11
-11.9037994696032
21
-18.046138904620346
31
0
0
SPLINE
5
267
100
AcDbEntity
8
0
100
AcDbSpline
70
4
71
3
72
8
73
4
74
0
42
0.000000001
43
0.0000000001
44
0.0000000001
40
0
40
0
40
0
40
0
40
1
40
1
40
1
40
1
41
1
41
1
41
1
41
1
10
-11.9037994696032
20
-18.046138904620346
30
0
10
-12.079439419940705
20
-17.986909753251588
30
0
10
-12.428437749909431
20
-17.875292283070337
30
0
10
-12.679351558246941
20
-17.798094291389084
30
0
0
LINE
5
268
100
AcDbEntity
8
0
100
AcDbLine
10
-12.679351558246941
20
-17.798094291389084
30
0
11
-13.135558494253177
21
-17.65774232427659
31
0
0
LINE
5
269
100
AcDbEntity
8
0
100
AcDbLine
10
-13.135558494253177
20
-17.65774232427659
30
0
11
-13.614575835253175
21
-16.997527301020341
31
0
0
SPLINE
5
270
100
AcDbEntity
8
0
100
AcDbSpline
70
4
71
3
72
8
73
4
74
0
42
0.000000001
43
0.0000000001
44
0.0000000001
40
0
40
0
40
0
40
0
40
1
40
1
40
1
40
1
41
1
41
1
41
1
41
1
10
-13.614575835253175
20
-16.997527301020341
30
0
10
-14.38335769937817
20
-15.937937699414103
30
0
10
-14.535340336228169
20
-15.645041593439103
30
0
10
-14.463957808734413
20
-15.3606300906516
30
0
0
SPLINE
5
271
100
AcDbEntity
8
0
100
AcDbSpline
70
4
71
3
72
8
73
4
74
0
42
0.000000001
43
0.0000000001
44
0.0000000001
40
0
40
0
40
0
40
0
40
1
40
1
40
1
40
1
41
1
41
1
41
1
41
1
10
-14.463957808734413
20
-15.3606300906516
30
0
10
-14.419700147690664
20
-15.18429388816411
30
0
10
-13.015812306084431
20
-13.406102106314117
30
0
10
-9.3452882633906942
20
-8.8772222741203688
30
0
0
SPLINE
5
272
100
AcDbEntity
8
0
100
AcDbSpline
70
4
71
3
72
8
73
4
74
0
42
0.000000001
43
0.0000000001
44
0.0000000001
40
0
40
0
40
0
40
0
40
1
40
1
40
1
40
1
41
1
41
1
41
1
41
1
10
-4.8097799400281982
20
-3.1083652107141546
30
0
10
-4.8097799400281982
20
-3.0485670568454015
30
0
10
-5.2147788494532055
20
-2.5823892572579021
30
0
10
-6.3771897891844453
20
-1.3041855328641505
30
0
0
SPLINE
5
273
100
AcDbEntity
8
0
100
AcDbSpline
70
4
71
3
72
8
73
4
74
0
42
0.000000001
43
0.0000000001
44
0.0000000001
40
0
40
0
40
0
40
0
40
1
40
1
40
1
40
1
41
1
41
1
41
1
41
1
10
-9.3452882633906942
20
-8.8772222741203688
30
0
10
-6.0952983208782019
20
-4.8672187960078883
30
0
10
-4.8097799400281982
20
-3.2321268753891452
30
0
10
-4.8097799400281982
20
-3.1083652107141546
30
0
0
LINE
5
274
100
AcDbEntity
8
0
100
AcDbLine
10
10.039759182796741
20
-18.197693755045343
30
0
11
8.9807335402592514
21
-17.529270870726599
31
0
0
SPLINE
5
275
100
AcDbEntity
8
0
100
AcDbSpline
70
4
71
3
72
8
73
4
74
0
42
0.000000001
43
0.0000000001
44
0.0000000001
40
0
40
0
40
0
40
0
40
1
40
1
40
1
40
1
41
1
41
1
41
1
41
1
10
8.9807335402592514
20
-17.529270870726599
30
0
10
8.398268570427998
20
-17.161635122507843
30
0
10
7.8657594337217507
20
-16.818507734470337
30
0
10
7.7973796876029944
20
-16.766759672789103
30
0
0
LINE
5
276
100
AcDbEntity
8
0
100
AcDbLine
10
7.7973796876029944
20
-16.766759672789103
30
0
11
7.6730516068030008
21
-16.672673945545352
31
0
0
SPLINE
5
277
100
AcDbEntity
8
0
100
AcDbSpline
70
4
71
3
72
8
73
4
74
0
42
0.000000001
43
0.0000000001
44
0.0000000001
40
0
40
0
40
0
40
0
40
1
40
1
40
1
40
1
41
1
41
1
41
1
41
1
10
12.029869221196741
20
-12.367206091082874
30
0
10
12.067225399190495
20
-12.367206091082874
30
0
10
12.560739889340486
20
-13.13637461827037
30
0
10
13.138787201352983
20
-14.095517303320371
30
0
0
LINE
5
278
100
AcDbEntity
8
0
100
AcDbLine
10
13.138787201352983
20
-14.095517303320371
30
0
11
13.519548802696718
21
-14.727306772139119
31
0
0
LINE
5
279
100
AcDbEntity
8
0
100
AcDbLine
10
11.779654639340485
20
-16.462501621439092
30
0
11
10.039759182796741
21
-18.197693755045343
31
0
0
LINE
5
280
100
AcDbEntity
8
0
100
AcDbLine
10
13.519548802696718
20
-14.727306772139119
30
0
11
11.779654639340485
21
-16.462501621439092
31
0
0
SPLINE
5
281
100
AcDbEntity
8
0
100
AcDbSpline
70
4
71
3
72
8
73
4
74
0
42
0.000000001
43
0.0000000001
44
0.0000000001
40
0
40
0
40
0
40
0
40
1
40
1
40
1
40
1
41
1
41
1
41
1
41
1
10
-12.823545714740678
20
-14.628851493651602
30
0
10
-13.244413069340668
20
-14.947174122932863
30
0
10
-13.168336271221914
20
-15.752047556995352
30
0
10
-12.695353460371939
20
-15.985088608851598
30
0
0
SPLINE
5
282
100
AcDbEntity
8
0
100
AcDbSpline
70
4
71
3
72
8
73
4
74
0
42
0.000000001
43
0.0000000001
44
0.0000000001
40
0
40
0
40
0
40
0
40
1
40
1
40
1
40
1
41
1
41
1
41
1
41
1
10
-12.695353460371939
20
-15.985088608851598
30
0
10
-12.50823181549694
20
-16.077283695970355
30
0
10
-12.157017608746949
20
-16.084242337907856
30
0
10
-11.959359977353197
20
-15.999670591101602
30
0
0
SPLINE
5
283
100
AcDbEntity
8
0
100
AcDbSpline
70
4
71
3
72
8
73
4
74
0
42
0.000000001
43
0.0000000001
44
0.0000000001
40
0
40
0
40
0
40
0
40
1
40
1
40
1
40
1
41
1
41
1
41
1
41
1
10
-11.556154331034447
20
-14.942888499557863
30
0
10
-11.785227883640701
20
-14.438583782226612
30
0
10
-12.377844763303179
20
-14.291743893426606
30
0
10
-12.823545714740678
20
-14.628851493651602
30
0
0
SPLINE
5
284
100
AcDbEntity
8
0
100
AcDbSpline
70
4
71
3
72
8
73
4
74
0
42
0.000000001
43
0.0000000001
44
0.0000000001
40
0
40
0
40
0
40
0
40
1
40
1
40
1
40
1
41
1
41
1
41
1
41
1
10
-11.959359977353197
20
-15.999670591101602
30
0
10
-11.541127492284442
20
-15.820720856676598
30
0
10
-11.365957098328199
20
-15.361606447214108
30
0
10
-11.556154331034447
20
-14.942888499557863
30
0
0
SPLINE
5
285
100
AcDbEntity
8
0
100
AcDbSpline
70
4
71
3
72
8
73
4
74
0
42
0.000000001
43
0.0000000001
44
0.0000000001
40
0
40
0
40
0
40
0
40
1
40
1
40
1
40
1
41
1
41
1
41
1
41
1
10
14.008762151221728
20
2.0975785846733297
30
0
10
13.067592186046738
20
2.2492149059108302
30
0
10
12.711613229953
20
2.2005627351045787
30
0
10
11.852173878646743
20
1.80283322057333
30
0
0
SPLINE
5
286
100
AcDbEntity
8
0
100
AcDbSpline
70
4
71
3
72
8
73
4
74
0
42
0.000000001
43
0.0000000001
44
0.0000000001
40
0
40
0
40
0
40
0
40
1
40
1
40
1
40
1
41
1
41
1
41
1
41
1
10
11.852173878646743
20
1.80283322057333
30
0
10
11.238190179196753
20
1.5186971667233262
30
0
10
11.030362404027994
20
1.4725277865983299
30
0
10
10.780361198109251
20
1.5647345124045797
30
0
0
SPLINE
5
287
100
AcDbEntity
8
0
100
AcDbSpline
70
4
71
3
72
8
73
4
74
0
42
0.000000001
43
0.0000000001
44
0.0000000001
40
0
40
0
40
0
40
0
40
1
40
1
40
1
40
1
41
1
41
1
41
1
41
1
10
10.780361198109251
20
1.5647345124045797
30
0
10
10.484370494446743
20
1.6739039786483279
30
0
10
10.116136000415503
20
1.9219174260608218
30
0
10
9.705724196071742
20
2.2885265127233234
30
0
0
SPLINE
5
288
100
AcDbEntity
8
0
100
AcDbSpline
70
4
71
3
72
8
73
4
74
0
42
0.000000001
43
0.0000000001
44
0.0000000001
40
0
40
0
40
0
40
0
40
1
40
1
40
1
40
1
41
1
41
1
41
1
41
1
10
9.705724196071742
20
2.2885265127233234
30
0
10
9.4879815523404964
20
2.4830305770795791
30
0
10
9.1250646453092621
20
2.8074804580545787
30
0
10
8.8992421660779932
20
3.0095276850983277
30
0
0
SPLINE
5
289
100
AcDbEntity
8
0
100
AcDbSpline
70
4
71
3
72
8
73
4
74
0
42
0.000000001
43
0.0000000001
44
0.0000000001
40
0
40
0
40
0
40
0
40
1
40
1
40
1
40
1
41
1
41
1
41
1
41
1
10
8.8992421660779932
20
3.0095276850983277
30
0
10
8.4489434158030097
20
3.4124170177545721
30
0
10
8.0027206632092565
20
3.6630674037983191
30
0
10
7.6042295905592461
20
3.7369574218545698
30
0
0
SPLINE
5
290
100
AcDbEntity
8
0
100
AcDbSpline
70
4
71
3
72
8
73
4
74
0
42
0.000000001
43
0.0000000001
44
0.0000000001
40
0
40
0
40
0
40
0
40
1
40
1
40
1
40
1
41
1
41
1
41
1
41
1
10
7.6042295905592461
20
3.7369574218545698
30
0
10
7.1044780570967525
20
3.8296243930920704
30
0
10
6.375982863159253
20
3.7602540653483252
30
0
10
5.9024606638029997
20
3.5749096480545761
30
0
0
LINE
5
291
100
AcDbEntity
8
0
100
AcDbLine
10
5.9024606638029997
20
3.5749096480545761
30
0
11
5.6885417168717645
21
3.4911784731233242
31
0
0
LINE
5
292
100
AcDbEntity
8
0
100
AcDbLine
10
5.6885417168717645
20
3.4911784731233242
30
0
11
5.0107070139280108
21
4.1957045660670715
31
0
0
SPLINE
5
293
100
AcDbEntity
8
0
100
AcDbSpline
70
4
71
3
72
8
73
4
74
0
42
0.000000001
43
0.0000000001
44
0.0000000001
40
0
40
0
40
0
40
0
40
1
40
1
40
1
40
1
41
1
41
1
41
1
41
1
10
5.0107070139280108
20
4.1957045660670715
30
0
10
3.6896404605280164
20
5.5687906212045712
30
0
10
2.8061938591967817
20
6.5032942048170721
30
0
10
2.7404236361342793
20
6.5971948769295663
30
0
0
SPLINE
5
294
100
AcDbEntity
8
0
100
AcDbSpline
70
4
71
3
72
8
73
4
74
0
42
0.000000001
43
0.0000000001
44
0.0000000001
40
0
40
0
40
0
40
0
40
1
40
1
40
1
40
1
41
1
41
1
41
1
41
1
10
2.7404236361342793
20
6.5971948769295663
30
0
10
2.6776939555217716
20
6.686754447923315
30
0
10
2.7035339108717782
20
6.7280161814858168
30
0
10
3.1816394253655211
20
7.3017606707295668
30
0
0
SPLINE
5
295
100
AcDbEntity
8
0
100
AcDbSpline
70
4
71
3
72
8
73
4
74
0
42
0.000000001
43
0.0000000001
44
0.0000000001
40
0
40
0
40
0
40
0
40
1
40
1
40
1
40
1
41
1
41
1
41
1
41
1
10
3.1816394253655211
20
7.3017606707295668
30
0
10
3.8167439803405223
20
8.0639093882108135
30
0
10
4.6995317026405026
20
9.0742588066545622
30
0
10
5.6947316881592602
20
10.177991880848307
30
0
0
SPLINE
5
296
100
AcDbEntity
8
0
100
AcDbSpline
70
4
71
3
72
8
73
4
74
0
42
0.000000001
43
0.0000000001
44
0.0000000001
40
0
40
0
40
0
40
0
40
1
40
1
40
1
40
1
41
1
41
1
41
1
41
1
10
5.6947316881592602
20
10.177991880848307
30
0
10
6.5330777288342468
20
11.107765889817047
30
0
10
6.5775619563279974
20
11.139526186860802
30
0
10
7.1180526462842586
20
11.194213793048293
30
0
0
SPLINE
5
297
100
AcDbEntity
8
0
100
AcDbSpline
70
4
71
3
72
8
73
4
74
0
42
0.000000001
43
0.0000000001
44
0.0000000001
40
0
40
0
40
0
40
0
40
1
40
1
40
1
40
1
41
1
41
1
41
1
41
1
10
7.1180526462842586
20
11.194213793048293
30
0
10
7.267512532959266
20
11.209336715629547
30
0
10
7.4830696898155047
20
11.266583022604548
30
0
10
7.5970705045592446
20
11.321428268348297
30
0
0
SPLINE
5
298
100
AcDbEntity
8
0
100
AcDbSpline
70
4
71
3
72
8
73
4
74
0
42
0.000000001
43
0.0000000001
44
0.0000000001
40
0
40
0
40
0
40
0
40
1
40
1
40
1
40
1
41
1
41
1
41
1
41
1
10
7.5970705045592446
20
11.321428268348297
30
0
10
7.9045162630967525
20
11.469339175035795
30
0
10
9.8370173847467601
20
13.424226794817031
30
0
10
11.734754005471753
20
15.507043117354534
30
0
0
SPLINE
5
299
100
AcDbEntity
8
0
100
AcDbSpline
70
4
71
3
72
8
73
4
74
0
42
0.000000001
43
0.0000000001
44
0.0000000001
40
0
40
0
40
0
40
0
40
1
40
1
40
1
40
1
41
1
41
1
41
1
41
1
10
11.734754005471753
20
15.507043117354534
30
0
10
12.61493078220925
20
16.473061421704521
30
0
10
13.473702848765488
20
17.395801525223273
30
0
10
13.643134723190485
20
17.557576436460767
30
0
0
SPLINE
5
300
100
AcDbEntity
8
0
100
AcDbSpline
70
4
71
3
72
8
73
4
74
0
42
0.000000001
43
0.0000000001
44
0.0000000001
40
0
40
0
40
0
40
0
40
1
40
1
40
1
40
1
41
1
41
1
41
1
41
1
10
13.643134723190485
20
17.557576436460767
30
0
10
13.934347099040473
20
17.835629336310763
30
0
10
13.954660488290479
20
17.846970202729516
30
0
10
14.014616411034231
20
17.764977071798267
30
0
0
SPLINE
5
301
100
AcDbEntity
8
0
100
AcDbSpline
70
4
71
3
72
8
73
4
74
0
42
0.000000001
43
0.0000000001
44
0.0000000001
40
0
40
0
40
0
40
0
40
1
40
1
40
1
40
1
41
1
41
1
41
1
41
1
10
14.014616411034231
20
17.764977071798267
30
0
10
14.150656891021738
20
17.578927479360765
30
0
10
14.217439550577984
20
17.165625400954521
30
0
10
14.302047506634231
20
15.986060587673281
30
0
0
SPLINE
5
302
100
AcDbEntity
8
0
100
AcDbSpline
70
4
71
3
72
8
73
4
74
0
42
0.000000001
43
0.0000000001
44
0.0000000001
40
0
40
0
40
0
40
0
40
1
40
1
40
1
40
1
41
1
41
1
41
1
41
1
10
14.302047506634231
20
15.986060587673281
30
0
10
14.382108615440483
20
14.869866488048283
30
0
10
14.659031398734218
20
14.184661133629533
30
0
10
15.523401544659219
20
12.963995459310784
30
0
0
SPLINE
5
303
100
AcDbEntity
8
0
100
AcDbSpline
70
4
71
3
72
8
73
4
74
0
42
0.000000001
43
0.0000000001
44
0.0000000001
40
0
40
0
40
0
40
0
40
1
40
1
40
1
40
1
41
1
41
1
41
1
41
1
10
15.523401544659219
20
12.963995459310784
30
0
10
16.167991112671722
20
12.053706552998287
30
0
10
17.307747735140474
20
10.750644790523294
30
0
10
18.795897605146724
20
9.2226118541483011
30
0
0
SPLINE
5
304
100
AcDbEntity
8
0
100
AcDbSpline
70
4
71
3
72
8
73
4
74
0
42
0.000000001
43
0.0000000001
44
0.0000000001
40
0
40
0
40
0
40
0
40
1
40
1
40
1
40
1
41
1
41
1
41
1
41
1
10
18.795897605146724
20
9.2226118541483011
30
0
10
19.707792391696721
20
8.2862760824858039
30
0
10
19.928120117240461
20
8.1467083042733019
30
0
10
20.617330990621717
20
8.0688139311233051
30
0
0
SPLINE
5
305
100
AcDbEntity
8
0
100
AcDbSpline
70
4
71
3
72
8
73
4
74
0
42
0.000000001
43
0.0000000001
44
0.0000000001
40
0
40
0
40
0
40
0
40
1
40
1
40
1
40
1
41
1
41
1
41
1
41
1
10
20.617330990621717
20
8.0688139311233051
30
0
10
21.07187786183421
20
8.0174410231357989
30
0
10
21.130106086077966
20
7.9935486081608031
30
0
10
21.430435433802963
20
7.7351884968795463
30
0
0
LINE
5
306
100
AcDbEntity
8
0
100
AcDbLine
10
21.430435433802963
20
7.7351884968795463
30
0
11
21.644037291159208
21
7.551434829529553
31
0
0
LINE
5
307
100
AcDbEntity
8
0
100
AcDbLine
10
21.644037291159208
20
7.551434829529553
30
0
11
21.000872945090453
21
6.8734878779108026
31
0
0
SPLINE
5
308
100
AcDbEntity
8
0
100
AcDbSpline
70
4
71
3
72
8
73
4
74
0
42
0.000000001
43
0.0000000001
44
0.0000000001
40
0
40
0
40
0
40
0
40
1
40
1
40
1
40
1
41
1
41
1
41
1
41
1
10
21.000872945090453
20
6.8734878779108026
30
0
10
20.647132367240459
20
6.5006173066920621
30
0
10
19.473221499027957
20
5.3038362882233159
30
0
10
18.392185805240466
20
4.2139758829358058
30
0
0
SPLINE
5
309
100
AcDbEntity
8
0
100
AcDbSpline
70
4
71
3
72
8
73
4
74
0
42
0.000000001
43
0.0000000001
44
0.0000000001
40
0
40
0
40
0
40
0
40
1
40
1
40
1
40
1
41
1
41
1
41
1
41
1
10
15.645226143777968
20
1.9991671452420734
30
0
10
15.240438411871718
20
1.942366599998322
30
0
10
14.812326879534217
20
1.9681113767483316
30
0
10
14.008762151221728
20
2.0975785846733297
30
0
0
SPLINE
5
310
100
AcDbEntity
8
0
100
AcDbSpline
70
4
71
3
72
8
73
4
74
0
42
0.000000001
43
0.0000000001
44
0.0000000001
40
0
40
0
40
0
40
0
40
1
40
1
40
1
40
1
41
1
41
1
41
1
41
1
10
18.392185805240466
20
4.2139758829358058
30
0
10
16.23569322854047
20
2.0398857400545767
30
0
10
16.298964884034227
20
2.0909005644233281
30
0
10
15.645226143777968
20
1.9991671452420734
30
0
0
SPLINE
5
311
100
AcDbEntity
8
0
100
AcDbSpline
70
4
71
3
72
8
73
4
74
0
42
0.000000001
43
0.0000000001
44
0.0000000001
40
0
40
0
40
0
40
0
40
1
40
1
40
1
40
1
41
1
41
1
41
1
41
1
10
15.694831393771729
20
3.8523767339670689
30
0
10
16.333186504846715
20
4.0186480581420714
30
0
10
16.749531324121726
20
4.3628643100545599
30
0
10
17.034773182602969
20
4.9601852885670645
30
0
0
SPLINE
5
312
100
AcDbEntity
8
0
100
AcDbSpline
70
4
71
3
72
8
73
4
74
0
42
0.000000001
43
0.0000000001
44
0.0000000001
40
0
40
0
40
0
40
0
40
1
40
1
40
1
40
1
41
1
41
1
41
1
41
1
10
17.034773182602969
20
4.9601852885670645
30
0
10
17.184983118027986
20
5.2747396987920663
30
0
10
17.202097032084222
20
5.3483671997858151
30
0
10
17.20112196870922
20
5.6757822303795624
30
0
0
SPLINE
5
313
100
AcDbEntity
8
0
100
AcDbSpline
70
4
71
3
72
8
73
4
74
0
42
0.000000001
43
0.0000000001
44
0.0000000001
40
0
40
0
40
0
40
0
40
1
40
1
40
1
40
1
41
1
41
1
41
1
41
1
10
17.20112196870922
20
5.6757822303795624
30
0
10
17.20034605620922
20
5.9242975638608115
30
0
10
17.176376955215474
20
6.0844934931608101
30
0
10
17.125888328840475
20
6.1778524490295617
30
0
0
SPLINE
5
314
100
AcDbEntity
8
0
100
AcDbSpline
70
4
71
3
72
8
73
4
74
0
42
0.000000001
43
0.0000000001
44
0.0000000001
40
0
40
0
40
0
40
0
40
1
40
1
40
1
40
1
41
1
41
1
41
1
41
1
10
17.125888328840475
20
6.1778524490295617
30
0
10
16.846666387490473
20
6.694147600860811
30
0
10
12.299477606671756
20
11.846071721404547
30
0
10
11.935916692265494
20
12.058040670904539
30
0
0
SPLINE
5
315
100
AcDbEntity
8
0
100
AcDbSpline
70
4
71
3
72
8
73
4
74
0
42
0.000000001
43
0.0000000001
44
0.0000000001
40
0
40
0
40
0
40
0
40
1
40
1
40
1
40
1
41
1
41
1
41
1
41
1
10
11.935916692265494
20
12.058040670904539
30
0
10
11.690882619534255
20
12.200905430648293
30
0
10
11.083270454896752
20
12.215034150679543
30
0
10
10.703721863428012
20
12.086692791792048
30
0
0
SPLINE
5
316
100
AcDbEntity
8
0
100
AcDbSpline
70
4
71
3
72
8
73
4
74
0
42
0.000000001
43
0.0000000001
44
0.0000000001
40
0
40
0
40
0
40
0
40
1
40
1
40
1
40
1
41
1
41
1
41
1
41
1
10
10.703721863428012
20
12.086692791792048
30
0
10
10.11640498341551
20
11.888095788998292
30
0
10
9.6638625528280073
20
11.470238716260791
30
0
10
9.4919335333405073
20
10.967783257054551
30
0
0
SPLINE
5
317
100
AcDbEntity
8
0
100
AcDbSpline
70
4
71
3
72
8
73
4
74
0
42
0.000000001
43
0.0000000001
44
0.0000000001
40
0
40
0
40
0
40
0
40
1
40
1
40
1
40
1
41
1
41
1
41
1
41
1
10
9.4919335333405073
20
10.967783257054551
30
0
10
9.4100076481592474
20
10.728362264667048
30
0
10
9.3788224315967561
20
10.105068003173294
30
0
10
9.4377258290342514
20
9.8843965483920542
30
0
0
SPLINE
5
318
100
AcDbEntity
8
0
100
AcDbSpline
70
4
71
3
72
8
73
4
74
0
42
0.000000001
43
0.0000000001
44
0.0000000001
40
0
40
0
40
0
40
0
40
1
40
1
40
1
40
1
41
1
41
1
41
1
41
1
10
9.4377258290342514
20
9.8843965483920542
30
0
10
9.4879298248405028
20
9.6963152290732992
30
0
10
10.958153529721745
20
7.9542596321295527
30
0
10
13.008875136927983
20
5.652971825385813
30
0
0
SPLINE
5
319
100
AcDbEntity
8
0
100
AcDbSpline
70
4
71
3
72
8
73
4
74
0
42
0.000000001
43
0.0000000001
44
0.0000000001
40
0
40
0
40
0
40
0
40
1
40
1
40
1
40
1
41
1
41
1
41
1
41
1
10
15.06873570019672
20
3.8321603337795662
30
0
10
15.321043952615469
20
3.7727165132858231
30
0
10
15.398614382296723
20
3.7752214174733201
30
0
10
15.694831393771729
20
3.8523767339670689
30
0
0
SPLINE
5
320
100
AcDbEntity
8
0
100
AcDbSpline
70
4
71
3
72
8
73
4
74
0
42
0.000000001
43
0.0000000001
44
0.0000000001
40
0
40
0
40
0
40
0
40
1
40
1
40
1
40
1
41
1
41
1
41
1
41
1
10
13.008875136927983
20
5.652971825385813
30
0
10
14.305974917071719
20
4.1973844166295615
30
0
10
14.592116704734224
20
3.944450261460819
30
0
10
15.06873570019672
20
3.8321603337795662
30
0
0
CIRCLE
5
321
100
AcDbEntity
8
0
100
AcDbCircle
10
0
20
0
30
0
40
25
210
0
220
0
230
1
0
LINE
5
322
100
AcDbEntity
8
0
100
AcDbLine
10
7.0516592361654951
20
-16.113069944339109
30
0
11
7.6730516068030008
21
-16.672673945545352
31
0
0
LINE
5
323
100
AcDbEntity
8
0
100
AcDbLine
10
11.604362039165492
20
-11.885084582807867
30
0
11
12.029869221196741
21
-12.367206091082874
31
0
0
SPLINE
5
324
100
AcDbEntity
8
0
100
AcDbSpline
70
4
71
3
72
8
73
4
74
0
42
0.000000001
43
0.0000000001
44
0.0000000001
40
0
40
0
40
0
40
0
40
4.3394825439447864e-05
40
4.3394825439447864e-05
40
4.3394825439447864e-05
40
4.3394825439447864e-05
41
1
41
1
41
1
41
1
10
11.604362039165492
20
-11.885084582807867
30
0
10
11.604362695629714
20
-11.885087413494158
30
0
10
11.60436334393003
20
-11.885090252144479
30
0
10
11.604363984067147
20
-11.885093098758135
30
0
0
CIRCLE
5
325
100
AcDbEntity
8
0
100
AcDbCircle
10
10.624139485876537
20
3.9264126697718114
30
0
40
0.70531418945216251
210
0
220
0
230
1
0
CIRCLE
5
326
100
AcDbEntity
8
0
100
AcDbCircle
10
5.2967220182653172
20
7.2698314230307766
30
0
40
0.7122467926556959
210
0
220
0
230
1
0
ENDSEC
0
SECTION
2
OBJECTS
0
DICTIONARY
5
C
100
AcDbDictionary
3
ACAD_GROUP
350
D
3
ACAD_MLINESTYLE
350
17
0
DICTIONARY
5
D
100
AcDbDictionary
0
DICTIONARY
5
1A
330
C
100
AcDbDictionary
0
DICTIONARY
5
17
100
AcDbDictionary
0
ENDSEC
0
EOF
