0
SECTION
2
HEADER
9
$INSUNITS
70
4
9
$ACADVER
1
AC1014
9
$HANDSEED
5
FFFF
0
ENDSEC
0
SECTION
2
TABLES
0
TABLE
2
VPORT
5
8
100
AcDbSymbolTable
0
ENDTAB
0
TABLE
2
LTYPE
5
5
100
AcDbSymbolTable
0
LTYPE
5
14
100
AcDbSymbolTableRecord
100
AcDbLinetypeTableRecord
2
BYBLOCK
70
0
0
LTYPE
5
15
100
AcDbSymbolTableRecord
100
AcDbLinetypeTableRecord
2
BYLAYER
70
0
0
ENDTAB
0
TABLE
2
LAYER
5
2
100
AcDbSymbolTable
70
2
0
LAYER
5
50
100
AcDbSymbolTableRecord
100
AcDbLayerTableRecord
2
0
70
0
6
CONTINUOUS
0
ENDTAB
0
TABLE
2
STYLE
5
3
100
AcDbSymbolTable
70
1
0
STYLE
5
11
100
AcDbSymbolTableRecord
100
AcDbTextStyleTableRecord
2
STANDARD
70
0
0
ENDTAB
0
TABLE
2
VIEW
5
6
100
AcDbSymbolTable
70
0
0
ENDTAB
0
TABLE
2
UCS
5
7
100
AcDbSymbolTable
70
0
0
ENDTAB
0
TABLE
2
APPID
5
9
100
AcDbSymbolTable
70
2
0
APPID
5
12
100
AcDbSymbolTableRecord
100
AcDbRegAppTableRecord
2
ACAD
70
0
0
ENDTAB
0
TABLE
2
DIMSTYLE
5
A
100
AcDbSymbolTable
70
1
0
ENDTAB
0
TABLE
2
BLOCK_RECORD
5
1
100
AcDbSymbolTable
70
1
0
BLOCK_RECORD
5
1F
100
AcDbSymbolTableRecord
100
AcDbBlockTableRecord
2
*MODEL_SPACE
0
BLOCK_RECORD
5
1B
100
AcDbSymbolTableRecord
100
AcDbBlockTableRecord
2
*PAPER_SPACE
0
ENDTAB
0
ENDSEC
0
SECTION
2
BLOCKS
0
BLOCK
5
20
100
AcDbEntity
100
AcDbBlockBegin
2
*MODEL_SPACE
0
ENDBLK
5
21
100
AcDbEntity
100
AcDbBlockEnd
0
BLOCK
5
1C
100
AcDbEntity
100
AcDbBlockBegin
2
*PAPER_SPACE
0
ENDBLK
5
1D
100
AcDbEntity
100
AcDbBlockEnd
0
ENDSEC
0
SECTION
2
ENTITIES
0
LWPOLYLINE
5
100
100
AcDbEntity
8
0
100
AcDbPolyline
90
4
70
1
43
0.0
10
53.974999999999994
20
28.574999999999999
10
-53.974999999999994
20
28.574999999999999
10
-53.974999999999994
20
-28.574999999999999
10
53.974999999999994
20
-28.574999999999999
0
SPLINE
5
101
100
AcDbEntity
8
0
100
AcDbSpline
70
4
71
3
72
8
73
4
74
0
42
0.000000001
43
0.0000000001
44
0.0000000001
40
0
40
0
40
0
40
0
40
1
40
1
40
1
40
1
41
1
41
1
41
1
41
1
10
-33.610075949685843
20
21.236429814235862
30
0
10
-31.307989803013282
20
22.895769643521788
30
0
10
-31.307989803013282
20
22.895769643521788
30
0
10
-28.531568510390404
20
21.096537069217867
30
0
0
SPLINE
5
102
100
AcDbEntity
8
0
100
AcDbSpline
70
4
71
3
72
8
73
4
74
0
42
0.000000001
43
0.0000000001
44
0.0000000001
40
0
40
0
40
0
40
0
40
1
40
1
40
1
40
1
41
1
41
1
41
1
41
1
10
-26.551275141097179
20
-27.485351995888774
30
0
10
-27.444764692641364
20
-25.052401340269466
30
0
10
-27.444764692641364
20
-25.052401340269466
30
0
10
-26.196157120721605
20
-23.348766633136488
30
0
0
SPLINE
5
103
100
AcDbEntity
8
0
100
AcDbSpline
70
4
71
3
72
8
73
4
74
0
42
0.000000001
43
0.0000000001
44
0.0000000001
40
0
40
0
40
0
40
0
40
1
40
1
40
1
40
1
41
1
41
1
41
1
41
1
10
-26.196157120721605
20
-23.348766633136488
30
0
10
-24.947549548801852
20
-21.645131926003511
30
0
10
-24.947549548801852
20
-21.645131926003511
30
0
10
-21.75210304166583
20
-21.899283079567962
30
0
0
SPLINE
5
104
100
AcDbEntity
8
0
100
AcDbSpline
70
4
71
3
72
8
73
4
74
0
42
0.000000001
43
0.0000000001
44
0.0000000001
40
0
40
0
40
0
40
0
40
1
40
1
40
1
40
1
41
1
41
1
41
1
41
1
10
-21.75210304166583
20
-21.899283079567962
30
0
10
-18.556658553140437
20
-22.153430195911152
30
0
10
-18.556658553140437
20
-22.153430195911152
30
0
10
-17.608880487141093
20
-24.783316505216977
30
0
0
SPLINE
5
105
100
AcDbEntity
8
0
100
AcDbSpline
70
4
71
3
72
8
73
4
74
0
42
0.000000001
43
0.0000000001
44
0.0000000001
40
0
40
0
40
0
40
0
40
1
40
1
40
1
40
1
41
1
41
1
41
1
41
1
10
-50.815184926049959
20
3.7988152461613467
30
0
10
-46.13882509773677
20
2.5311439153914961
30
0
10
-46.13882509773677
20
2.5311439153914961
30
0
10
-46.721284094509542
20
-0.53805868254450218
30
0
0
SPLINE
5
106
100
AcDbEntity
8
0
100
AcDbSpline
70
4
71
3
72
8
73
4
74
0
42
0.000000001
43
0.0000000001
44
0.0000000001
40
0
40
0
40
0
40
0
40
1
40
1
40
1
40
1
41
1
41
1
41
1
41
1
10
-46.721284094509542
20
-0.53805868254450218
30
0
10
-47.3037430912823
20
-3.6072592618698707
30
0
10
-47.3037430912823
20
-3.6072592618698707
30
0
10
-51.397643922822724
20
-3.8908175351852847
30
0
0
SPLINE
5
107
100
AcDbEntity
8
0
100
AcDbSpline
70
4
71
3
72
8
73
4
74
0
42
0.000000001
43
0.0000000001
44
0.0000000001
40
0
40
0
40
0
40
0
40
1
40
1
40
1
40
1
41
1
41
1
41
1
41
1
10
-35.79946710174984
20
-26.471835855904651
30
0
10
-34.611823589659792
20
-24.977385731799835
30
0
10
-34.611823589659792
20
-24.977385731799835
30
0
10
-31.568655013101363
20
-25.221815256539397
30
0
0
SPLINE
5
108
100
AcDbEntity
8
0
100
AcDbSpline
70
4
71
3
72
8
73
4
74
0
42
0.000000001
43
0.0000000001
44
0.0000000001
40
0
40
0
40
0
40
0
40
1
40
1
40
1
40
1
41
1
41
1
41
1
41
1
10
-31.568655013101363
20
-25.221815256539397
30
0
10
-28.525486436542934
20
-25.466248818500254
30
0
10
-28.525486436542934
20
-25.466248818500254
30
0
10
-27.631996884998745
20
-27.899199474119563
30
0
0
SPLINE
5
109
100
AcDbEntity
8
0
100
AcDbSpline
70
4
71
3
72
8
73
4
74
0
42
0.000000001
43
0.0000000001
44
0.0000000001
40
0
40
0
40
0
40
0
40
1
40
1
40
1
40
1
41
1
41
1
41
1
41
1
10
6.7661174783536726
20
-27.037882538898206
30
0
10
3.6942927052010166
20
-27.746003075702408
30
0
10
3.6942927052010166
20
-27.746003075702408
30
0
10
2.056048871023366
20
-25.937053414447533
30
0
0
SPLINE
5
110
100
AcDbEntity
8
0
100
AcDbSpline
70
4
71
3
72
8
73
4
74
0
42
0.000000001
43
0.0000000001
44
0.0000000001
40
0
40
0
40
0
40
0
40
1
40
1
40
1
40
1
41
1
41
1
41
1
41
1
10
2.056048871023366
20
-25.937053414447533
30
0
10
0.41780099962442918
20
-24.128107790413917
30
0
10
0.41780099962442918
20
-24.128107790413917
30
0
10
1.5416422853299938
20
-21.191376515491225
30
0
0
SPLINE
5
111
100
AcDbEntity
8
0
100
AcDbSpline
70
4
71
3
72
8
73
4
74
0
42
0.000000001
43
0.0000000001
44
0.0000000001
40
0
40
0
40
0
40
0
40
1
40
1
40
1
40
1
41
1
41
1
41
1
41
1
10
10.480970669729404
20
-23.631791993243922
30
0
10
9.8379422515063464
20
-26.329762002094004
30
0
10
9.8379422515063464
20
-26.329762002094004
30
0
10
6.7661174783536726
20
-27.037882538898206
30
0
0
SPLINE
5
112
100
AcDbEntity
8
0
100
AcDbSpline
70
4
71
3
72
8
73
4
74
0
42
0.000000001
43
0.0000000001
44
0.0000000001
40
0
40
0
40
0
40
0
40
1
40
1
40
1
40
1
41
1
41
1
41
1
41
1
10
-36.798186825769207
20
-25.675122535490438
30
0
10
-37.985830337859248
20
-27.169572659595254
30
0
10
-37.985830337859248
20
-27.169572659595254
30
0
10
-41.215918222126419
20
-26.984970716897081
30
0
0
SPLINE
5
113
100
AcDbEntity
8
0
100
AcDbSpline
70
4
71
3
72
8
73
4
74
0
42
0.000000001
43
0.0000000001
44
0.0000000001
40
0
40
0
40
0
40
0
40
1
40
1
40
1
40
1
41
1
41
1
41
1
41
1
10
-41.215918222126419
20
-26.984970716897081
30
0
10
-44.446007115698904
20
-26.800368774198926
30
0
10
-44.446007115698904
20
-26.800368774198926
30
0
10
-45.356419689513302
20
-24.57861323780163
30
0
0
SPLINE
5
114
100
AcDbEntity
8
0
100
AcDbSpline
70
4
71
3
72
8
73
4
74
0
42
0.000000001
43
0.0000000001
44
0.0000000001
40
0
40
0
40
0
40
0
40
1
40
1
40
1
40
1
41
1
41
1
41
1
41
1
10
-36.58960177010006
20
-21.166374004148878
30
0
10
-35.610543313679159
20
-24.180668374164345
30
0
10
-35.610543313679159
20
-24.180668374164345
30
0
10
-36.798186825769207
20
-25.675122535490438
30
0
0
SPLINE
5
115
100
AcDbEntity
8
0
100
AcDbSpline
70
4
71
3
72
8
73
4
74
0
42
0.000000001
43
0.0000000001
44
0.0000000001
40
0
40
0
40
0
40
0
40
1
40
1
40
1
40
1
41
1
41
1
41
1
41
1
10
-44.278608782149419
20
26.832665463026864
30
0
10
-44.289570847210349
20
23.808946199950078
30
0
10
-44.289570847210349
20
23.808946199950078
30
0
10
-45.82914095625982
20
22.475215836104248
30
0
0
SPLINE
5
116
100
AcDbEntity
8
0
100
AcDbSpline
70
4
71
3
72
8
73
4
74
0
42
0.000000001
43
0.0000000001
44
0.0000000001
40
0
40
0
40
0
40
0
40
1
40
1
40
1
40
1
41
1
41
1
41
1
41
1
10
-45.82914095625982
20
22.475215836104248
30
0
10
-47.368714093225257
20
21.141485472258417
30
0
10
-47.368714093225257
20
21.141485472258417
30
0
10
-51.36670871482
20
22.072382906810937
30
0
0
SPLINE
5
117
100
AcDbEntity
8
0
100
AcDbSpline
70
4
71
3
72
8
73
4
74
0
42
0.000000001
43
0.0000000001
44
0.0000000001
40
0
40
0
40
0
40
0
40
1
40
1
40
1
40
1
41
1
41
1
41
1
41
1
10
17.371566709819312
20
21.074503934121651
30
0
10
15.47479133699623
20
21.800600198642925
30
0
10
15.47479133699623
20
21.800600198642925
30
0
10
15.297072856568166
20
25.805452545222174
30
0
0
SPLINE
5
118
100
AcDbEntity
8
0
100
AcDbSpline
70
4
71
3
72
8
73
4
74
0
42
0.000000001
43
0.0000000001
44
0.0000000001
40
0
40
0
40
0
40
0
40
1
40
1
40
1
40
1
41
1
41
1
41
1
41
1
10
24.763751158061478
20
26.986065741118317
30
0
10
24.856138929667928
20
24.161826590435247
30
0
10
24.856138929667928
20
24.161826590435247
30
0
10
22.062236468933882
20
22.255117634670469
30
0
0
SPLINE
5
119
100
AcDbEntity
8
0
100
AcDbSpline
70
4
71
3
72
8
73
4
74
0
42
0.000000001
43
0.0000000001
44
0.0000000001
40
0
40
0
40
0
40
0
40
1
40
1
40
1
40
1
41
1
41
1
41
1
41
1
10
22.062236468933882
20
22.255117634670469
30
0
10
19.268334008199844
20
20.348408678905692
30
0
10
19.268334008199844
20
20.348408678905692
30
0
10
17.371566709819312
20
21.074503934121651
30
0
0
SPLINE
5
120
100
AcDbEntity
8
0
100
AcDbSpline
70
4
71
3
72
8
73
4
74
0
42
0.000000001
43
0.0000000001
44
0.0000000001
40
0
40
0
40
0
40
0
40
1
40
1
40
1
40
1
41
1
41
1
41
1
41
1
10
-3.8201226542960676
20
22.005408433811411
30
0
10
-6.6368233035575397
20
23.879142375525362
30
0
10
-6.6368233035575397
20
23.879142375525362
30
0
10
-6.6033305158785005
20
26.842052507138767
30
0
0
SPLINE
5
121
100
AcDbEntity
8
0
100
AcDbSpline
70
4
71
3
72
8
73
4
74
0
42
0.000000001
43
0.0000000001
44
0.0000000001
40
0
40
0
40
0
40
0
40
1
40
1
40
1
40
1
41
1
41
1
41
1
41
1
10
3.5795669882922265
20
26.367757733401191
30
0
10
3.4279128084012722
20
22.930550304786905
30
0
10
3.4279128084012722
20
22.930550304786905
30
0
10
1.2122454016833384
20
21.5311136600738
30
0
0
SPLINE
5
122
100
AcDbEntity
8
0
100
AcDbSpline
70
4
71
3
72
8
73
4
74
0
42
0.000000001
43
0.0000000001
44
0.0000000001
40
0
40
0
40
0
40
0
40
1
40
1
40
1
40
1
41
1
41
1
41
1
41
1
10
48.457629522624458
20
21.580490894850612
30
0
10
47.627399191203551
20
22.373441525038622
30
0
10
47.627399191203551
20
22.373441525038622
30
0
10
47.779747773153431
20
26.096131972210159
30
0
0
SPLINE
5
123
100
AcDbEntity
8
0
100
AcDbSpline
70
4
71
3
72
8
73
4
74
0
42
0.000000001
43
0.0000000001
44
0.0000000001
40
0
40
0
40
0
40
0
40
1
40
1
40
1
40
1
41
1
41
1
41
1
41
1
10
52.358505758586361
20
20.774825036263991
30
0
10
49.287859854045344
20
20.787541273967953
30
0
10
49.287859854045344
20
20.787541273967953
30
0
10
48.457629522624458
20
21.580490894850612
30
0
0
SPLINE
5
124
100
AcDbEntity
8
0
100
AcDbSpline
70
4
71
3
72
8
73
4
74
0
42
0.000000001
43
0.0000000001
44
0.0000000001
40
0
40
0
40
0
40
0
40
1
40
1
40
1
40
1
41
1
41
1
41
1
41
1
10
12.637383779826648
20
-28.424873944385247
30
0
10
10.984904703441165
20
-26.603978145384222
30
0
10
10.984904703441165
20
-26.603978145384222
30
0
10
11.627933121664213
20
-23.906008136534123
30
0
0
SPLINE
5
125
100
AcDbEntity
8
0
100
AcDbSpline
70
4
71
3
72
8
73
4
74
0
42
0.000000001
43
0.0000000001
44
0.0000000001
40
0
40
0
40
0
40
0
40
1
40
1
40
1
40
1
41
1
41
1
41
1
41
1
10
11.627933121664213
20
-23.906008136534123
30
0
10
12.270965577108548
20
-21.208038127684006
30
0
10
12.270965577108548
20
-21.208038127684006
30
0
10
15.465061633728823
20
-20.742481919391356
30
0
0
SPLINE
5
126
100
AcDbEntity
8
0
100
AcDbSpline
70
4
71
3
72
8
73
4
74
0
42
0.000000001
43
0.0000000001
44
0.0000000001
40
0
40
0
40
0
40
0
40
1
40
1
40
1
40
1
41
1
41
1
41
1
41
1
10
20.109650549235809
20
-22.02336303816578
30
0
10
21.560135333679984
20
-23.769800365232836
30
0
10
21.560135333679984
20
-23.769800365232836
30
0
10
20.69373149965493
20
-26.38583093113045
30
0
0
SPLINE
5
127
100
AcDbEntity
8
0
100
AcDbSpline
70
4
71
3
72
8
73
4
74
0
42
0.000000001
43
0.0000000001
44
0.0000000001
40
0
40
0
40
0
40
0
40
1
40
1
40
1
40
1
41
1
41
1
41
1
41
1
10
22.588714346232877
20
21.509100711083953
30
0
10
25.382616806966922
20
23.415809666848695
30
0
10
25.382616806966922
20
23.415809666848695
30
0
10
27.484305382711547
20
21.857430143889331
30
0
0
SPLINE
5
128
100
AcDbEntity
8
0
100
AcDbSpline
70
4
71
3
72
8
73
4
74
0
42
0.000000001
43
0.0000000001
44
0.0000000001
40
0
40
0
40
0
40
0
40
1
40
1
40
1
40
1
41
1
41
1
41
1
41
1
10
38.338221360189557
20
22.088527754680847
30
0
10
36.921439298930622
20
23.237464912470713
30
0
10
36.921439298930622
20
23.237464912470713
30
0
10
37.016798465393833
20
26.539578842855036
30
0
0
SPLINE
5
129
100
AcDbEntity
8
0
100
AcDbSpline
70
4
71
3
72
8
73
4
74
0
42
0.000000001
43
0.0000000001
44
0.0000000001
40
0
40
0
40
0
40
0
40
1
40
1
40
1
40
1
41
1
41
1
41
1
41
1
10
46.598682913127391
20
26.119002326067822
30
0
10
46.446334331177525
20
22.39631238354896
30
0
10
46.446334331177525
20
22.39631238354896
30
0
10
43.100672913534282
20
21.667951237893632
30
0
0
SPLINE
5
130
100
AcDbEntity
8
0
100
AcDbSpline
70
4
71
3
72
8
73
4
74
0
42
0.000000001
43
0.0000000001
44
0.0000000001
40
0
40
0
40
0
40
0
40
1
40
1
40
1
40
1
41
1
41
1
41
1
41
1
10
43.100672913534282
20
21.667951237893632
30
0
10
39.755011495891054
20
20.939590092238305
30
0
10
39.755011495891054
20
20.939590092238305
30
0
10
38.338221360189557
20
22.088527754680847
30
0
0
SPLINE
5
131
100
AcDbEntity
8
0
100
AcDbSpline
70
4
71
3
72
8
73
4
74
0
42
0.000000001
43
0.0000000001
44
0.0000000001
40
0
40
0
40
0
40
0
40
1
40
1
40
1
40
1
41
1
41
1
41
1
41
1
10
-15.7825182905367
20
22.164939232405523
30
0
10
-18.573788483000882
20
24.141591028110696
30
0
10
-18.573788483000882
20
24.141591028110696
30
0
10
-18.578661409077135
20
26.977112193640558
30
0
0
SPLINE
5
132
100
AcDbEntity
8
0
100
AcDbSpline
70
4
71
3
72
8
73
4
74
0
42
0.000000001
43
0.0000000001
44
0.0000000001
40
0
40
0
40
0
40
0
40
1
40
1
40
1
40
1
41
1
41
1
41
1
41
1
10
-7.8947366705110689
20
26.84972070429378
30
0
10
-7.928229458190108
20
23.88680804941707
30
0
10
-7.928229458190108
20
23.88680804941707
30
0
10
-10.459740796741936
20
22.037547743058745
30
0
0
SPLINE
5
133
100
AcDbEntity
8
0
100
AcDbSpline
70
4
71
3
72
8
73
4
74
0
42
0.000000001
43
0.0000000001
44
0.0000000001
40
0
40
0
40
0
40
0
40
1
40
1
40
1
40
1
41
1
41
1
41
1
41
1
10
-10.459740796741936
20
22.037547743058745
30
0
10
-12.991252135293783
20
20.18828743670035
30
0
10
-12.991252135293783
20
20.18828743670035
30
0
10
-15.7825182905367
20
22.164939232405523
30
0
0
SPLINE
5
134
100
AcDbEntity
8
0
100
AcDbSpline
70
4
71
3
72
8
73
4
74
0
42
0.000000001
43
0.0000000001
44
0.0000000001
40
0
40
0
40
0
40
0
40
1
40
1
40
1
40
1
41
1
41
1
41
1
41
1
10
28.153620148641725
20
22.649219063656076
30
0
10
26.051923498454546
20
24.207599091268115
30
0
10
26.051923498454546
20
24.207599091268115
30
0
10
25.959535726848095
20
27.031838241951185
30
0
0
SPLINE
5
135
100
AcDbEntity
8
0
100
AcDbSpline
70
4
71
3
72
8
73
4
74
0
42
0.000000001
43
0.0000000001
44
0.0000000001
40
0
40
0
40
0
40
0
40
1
40
1
40
1
40
1
41
1
41
1
41
1
41
1
10
35.815216446859495
20
26.553963966902643
30
0
10
35.719849205953729
20
23.25185003651832
30
0
10
35.719849205953729
20
23.25185003651832
30
0
10
32.987578965170044
20
22.171345293260138
30
0
0
SPLINE
5
136
100
AcDbEntity
8
0
100
AcDbSpline
70
4
71
3
72
8
73
4
74
0
42
0.000000001
43
0.0000000001
44
0.0000000001
40
0
40
0
40
0
40
0
40
1
40
1
40
1
40
1
41
1
41
1
41
1
41
1
10
32.987578965170044
20
22.171345293260138
30
0
10
30.255308724386349
20
21.090839540696678
30
0
10
30.255308724386349
20
21.090839540696678
30
0
10
28.153620148641725
20
22.649219063656076
30
0
0
SPLINE
5
137
100
AcDbEntity
8
0
100
AcDbSpline
70
4
71
3
72
8
73
4
74
0
42
0.000000001
43
0.0000000001
44
0.0000000001
40
0
40
0
40
0
40
0
40
1
40
1
40
1
40
1
41
1
41
1
41
1
41
1
10
-51.465745789862716
20
-13.812062728666721
30
0
10
-47.486150804218703
20
-13.878499241931692
30
0
10
-47.486150804218703
20
-13.878499241931692
30
0
10
-46.450476375278882
20
-15.859854400419646
30
0
0
SPLINE
5
138
100
AcDbEntity
8
0
100
AcDbSpline
70
4
71
3
72
8
73
4
74
0
42
0.000000001
43
0.0000000001
44
0.0000000001
40
0
40
0
40
0
40
0
40
1
40
1
40
1
40
1
41
1
41
1
41
1
41
1
10
-46.368683281597541
20
-19.83303323215587
30
0
10
-47.32256461685602
20
-21.824856905404175
30
0
10
-47.32256461685602
20
-21.824856905404175
30
0
10
-51.383952191528721
20
-21.827642588082394
30
0
0
SPLINE
5
139
100
AcDbEntity
8
0
100
AcDbSpline
70
4
71
3
72
8
73
4
74
0
42
0.000000001
43
0.0000000001
44
0.0000000001
40
0
40
0
40
0
40
0
40
1
40
1
40
1
40
1
41
1
41
1
41
1
41
1
10
25.135546939514946
20
-22.63255550490161
30
0
10
22.511030134501926
20
-22.964092115822829
30
0
10
22.511030134501926
20
-22.964092115822829
30
0
10
21.060537275615204
20
-21.217654788755773
30
0
0
SPLINE
5
140
100
AcDbEntity
8
0
100
AcDbSpline
70
4
71
3
72
8
73
4
74
0
42
0.000000001
43
0.0000000001
44
0.0000000001
40
0
40
0
40
0
40
0
40
1
40
1
40
1
40
1
41
1
41
1
41
1
41
1
10
-9.7782013247977684
20
21.180982617275461
30
0
10
-7.2466899862459311
20
23.030242923633786
30
0
10
-7.2466899862459311
20
23.030242923633786
30
0
10
-4.429989336984459
20
21.156511000530465
30
0
0
SPLINE
5
141
100
AcDbEntity
8
0
100
AcDbSpline
70
4
71
3
72
8
73
4
74
0
42
0.000000001
43
0.0000000001
44
0.0000000001
40
0
40
0
40
0
40
0
40
1
40
1
40
1
40
1
41
1
41
1
41
1
41
1
10
-3.2904271116426553
20
-24.04018922275645
30
0
10
-5.9465997686555916
20
-24.326028526091008
30
0
10
-5.9465997686555916
20
-24.326028526091008
30
0
10
-7.5295942297151619
20
-20.605490927163181
30
0
0
SPLINE
5
142
100
AcDbEntity
8
0
100
AcDbSpline
70
4
71
3
72
8
73
4
74
0
42
0.000000001
43
0.0000000001
44
0.0000000001
40
0
40
0
40
0
40
0
40
1
40
1
40
1
40
1
41
1
41
1
41
1
41
1
10
0.48958683107584555
20
-20.817622681720476
30
0
10
-0.63425445462971908
20
-23.754353956643168
30
0
10
-0.63425445462971908
20
-23.754353956643168
30
0
10
-3.2904271116426553
20
-24.04018922275645
30
0
0
SPLINE
5
143
100
AcDbEntity
8
0
100
AcDbSpline
70
4
71
3
72
8
73
4
74
0
42
0.000000001
43
0.0000000001
44
0.0000000001
40
0
40
0
40
0
40
0
40
1
40
1
40
1
40
1
41
1
41
1
41
1
41
1
10
-51.341430663125756
20
-4.8864810827011596
30
0
10
-47.247529831585339
20
-4.6029228093857455
30
0
10
-47.247529831585339
20
-4.6029228093857455
30
0
10
-46.23608579541947
20
-6.0347233337794393
30
0
0
SPLINE
5
144
100
AcDbEntity
8
0
100
AcDbSpline
70
4
71
3
72
8
73
4
74
0
42
0.000000001
43
0.0000000001
44
0.0000000001
40
0
40
0
40
0
40
0
40
1
40
1
40
1
40
1
41
1
41
1
41
1
41
1
10
-46.350390632010551
20
-10.176108952625054
30
0
10
-47.476139504767509
20
-12.885698084298234
30
0
10
-47.476139504767509
20
-12.885698084298234
30
0
10
-51.455736004369506
20
-12.819265608254522
30
0
0
SPLINE
5
145
100
AcDbEntity
8
0
100
AcDbSpline
70
4
71
3
72
8
73
4
74
0
42
0.000000001
43
0.0000000001
44
0.0000000001
40
0
40
0
40
0
40
0
40
1
40
1
40
1
40
1
41
1
41
1
41
1
41
1
10
-21.836650529560536
20
21.331226797636837
30
0
10
-19.211140568114406
20
23.305571321384591
30
0
10
-19.211140568114406
20
23.305571321384591
30
0
10
-16.419874412871494
20
21.328919525679453
30
0
0
SPLINE
5
146
100
AcDbEntity
8
0
100
AcDbSpline
70
4
71
3
72
8
73
4
74
0
42
0.000000001
43
0.0000000001
44
0.0000000001
40
0
40
0
40
0
40
0
40
1
40
1
40
1
40
1
41
1
41
1
41
1
41
1
10
33.381579463623808
20
21.240987837052856
30
0
10
36.113849704407514
20
22.321493589616352
30
0
10
36.113849704407514
20
22.321493589616352
30
0
10
37.53063176566647
20
21.172555927173811
30
0
0
SPLINE
5
147
100
AcDbEntity
8
0
100
AcDbSpline
70
4
71
3
72
8
73
4
74
0
42
0.000000001
43
0.0000000001
44
0.0000000001
40
0
40
0
40
0
40
0
40
1
40
1
40
1
40
1
41
1
41
1
41
1
41
1
10
-6.8464802414745929
20
-26.858254452808126
30
0
10
-5.8170614868969572
20
-25.534005503121442
30
0
10
-5.8170614868969572
20
-25.534005503121442
30
0
10
-3.160888829884021
20
-25.248166199786883
30
0
0
SPLINE
5
148
100
AcDbEntity
8
0
100
AcDbSpline
70
4
71
3
72
8
73
4
74
0
42
0.000000001
43
0.0000000001
44
0.0000000001
40
0
40
0
40
0
40
0
40
1
40
1
40
1
40
1
41
1
41
1
41
1
41
1
10
-3.160888829884021
20
-25.248166199786883
30
0
10
-0.5047161728710936
20
-24.962326896452325
30
0
10
-0.5047161728710936
20
-24.962326896452325
30
0
10
1.1335276613065659
20
-26.77127252048594
30
0
0
SPLINE
5
149
100
AcDbEntity
8
0
100
AcDbSpline
70
4
71
3
72
8
73
4
74
0
42
0.000000001
43
0.0000000001
44
0.0000000001
40
0
40
0
40
0
40
0
40
1
40
1
40
1
40
1
41
1
41
1
41
1
41
1
10
49.913467662476343
20
11.004360973573277
30
0
10
48.142177201254
20
12.27157004250742
30
0
10
48.142177201254
20
12.27157004250742
30
0
10
48.715640259725689
20
15.954744167860895
30
0
0
SPLINE
5
150
100
AcDbEntity
8
0
100
AcDbSpline
70
4
71
3
72
8
73
4
74
0
42
0.000000001
43
0.0000000001
44
0.0000000001
40
0
40
0
40
0
40
0
40
1
40
1
40
1
40
1
41
1
41
1
41
1
41
1
10
48.715640259725689
20
15.954744167860895
30
0
10
49.289103318197363
20
19.637918293214405
30
0
10
49.289103318197363
20
19.637918293214405
30
0
10
52.359741148295846
20
19.625203064815757
30
0
0
SPLINE
5
151
100
AcDbEntity
8
0
100
AcDbSpline
70
4
71
3
72
8
73
4
74
0
42
0.000000001
43
0.0000000001
44
0.0000000001
40
0
40
0
40
0
40
0
40
1
40
1
40
1
40
1
41
1
41
1
41
1
41
1
10
49.231629436157988
20
10.046178988353986
30
0
10
51.002919897380309
20
8.7789699194198434
30
0
10
51.002919897380309
20
8.7789699194198434
30
0
10
50.978373592041777
20
6.4010324594741874
30
0
0
SPLINE
5
152
100
AcDbEntity
8
0
100
AcDbSpline
70
4
71
3
72
8
73
4
74
0
42
0.000000001
43
0.0000000001
44
0.0000000001
40
0
40
0
40
0
40
0
40
1
40
1
40
1
40
1
41
1
41
1
41
1
41
1
10
50.978373592041777
20
6.4010324594741874
30
0
10
50.95382728670323
20
4.0230949995284959
30
0
10
50.95382728670323
20
4.0230949995284959
30
0
10
48.449934578878526
20
2.4011998928950007
30
0
0
SPLINE
5
153
100
AcDbEntity
8
0
100
AcDbSpline
70
4
71
3
72
8
73
4
74
0
42
0.000000001
43
0.0000000001
44
0.0000000001
40
0
40
0
40
0
40
0
40
1
40
1
40
1
40
1
41
1
41
1
41
1
41
1
10
-32.032166368819354
20
26.815583979821689
30
0
10
-32.044263902363255
20
23.804951369500671
30
0
10
-32.044263902363255
20
23.804951369500671
30
0
10
-34.346352067646457
20
22.145612044867384
30
0
0
SPLINE
5
154
100
AcDbEntity
8
0
100
AcDbSpline
70
4
71
3
72
8
73
4
74
0
42
0.000000001
43
0.0000000001
44
0.0000000001
40
0
40
0
40
0
40
0
40
1
40
1
40
1
40
1
41
1
41
1
41
1
41
1
10
-34.346352067646457
20
22.145612044867384
30
0
10
-36.648438214319022
20
20.486272720234098
30
0
10
-36.648438214319022
20
20.486272720234098
30
0
10
-39.790046357171803
20
22.132525392111653
30
0
0
SPLINE
5
155
100
AcDbEntity
8
0
100
AcDbSpline
70
4
71
3
72
8
73
4
74
0
42
0.000000001
43
0.0000000001
44
0.0000000001
40
0
40
0
40
0
40
0
40
1
40
1
40
1
40
1
41
1
41
1
41
1
41
1
10
-39.790046357171803
20
22.132525392111653
30
0
10
-42.931653490719263
20
23.778779073294487
30
0
10
-42.931653490719263
20
23.778779073294487
30
0
10
-42.920691425658326
20
26.802497831718632
30
0
0
SPLINE
5
156
100
AcDbEntity
8
0
100
AcDbSpline
70
4
71
3
72
8
73
4
74
0
42
0.000000001
43
0.0000000001
44
0.0000000001
40
0
40
0
40
0
40
0
40
1
40
1
40
1
40
1
41
1
41
1
41
1
41
1
10
-31.4999172837109
20
-24.082959544920346
30
0
10
-34.543085860269329
20
-23.838525982959506
30
0
10
-34.543085860269329
20
-23.838525982959506
30
0
10
-35.522144316690223
20
-20.824235650165317
30
0
0
SPLINE
5
157
100
AcDbEntity
8
0
100
AcDbSpline
70
4
71
3
72
8
73
4
74
0
42
0.000000001
43
0.0000000001
44
0.0000000001
40
0
40
0
40
0
40
0
40
1
40
1
40
1
40
1
41
1
41
1
41
1
41
1
10
-27.208139116622078
20
-22.623762436969503
30
0
10
-28.456746688541838
20
-24.327397144102481
30
0
10
-28.456746688541838
20
-24.327397144102481
30
0
10
-31.4999172837109
20
-24.082959544920346
30
0
0
SPLINE
5
158
100
AcDbEntity
8
0
100
AcDbSpline
70
4
71
3
72
8
73
4
74
0
42
0.000000001
43
0.0000000001
44
0.0000000001
40
0
40
0
40
0
40
0
40
1
40
1
40
1
40
1
41
1
41
1
41
1
41
1
10
48.942669360779583
20
-23.595501411222823
30
0
10
46.698725256267046
20
-21.384577739500408
30
0
10
46.698725256267046
20
-21.384577739500408
30
0
10
47.312415187500761
20
-18.944339899483715
30
0
0
SPLINE
5
159
100
AcDbEntity
8
0
100
AcDbSpline
70
4
71
3
72
8
73
4
74
0
42
0.000000001
43
0.0000000001
44
0.0000000001
40
0
40
0
40
0
40
0
40
1
40
1
40
1
40
1
41
1
41
1
41
1
41
1
10
47.312415187500761
20
-18.944339899483715
30
0
10
47.926105118734498
20
-16.504098022245763
30
0
10
47.926105118734498
20
-16.504098022245763
30
0
10
49.661811511658485
20
-15.553324338062033
30
0
0
SPLINE
5
160
100
AcDbEntity
8
0
100
AcDbSpline
70
4
71
3
72
8
73
4
74
0
42
0.000000001
43
0.0000000001
44
0.0000000001
40
0
40
0
40
0
40
0
40
1
40
1
40
1
40
1
41
1
41
1
41
1
41
1
10
49.661811511658485
20
-15.553324338062033
30
0
10
51.397517904582486
20
-14.602550653878268
30
0
10
51.397517904582486
20
-14.602550653878268
30
0
10
53.60064570202713
20
-15.784063645465594
30
0
0
SPLINE
5
161
100
AcDbEntity
8
0
100
AcDbSpline
70
4
71
3
72
8
73
4
74
0
42
0.000000001
43
0.0000000001
44
0.0000000001
40
0
40
0
40
0
40
0
40
1
40
1
40
1
40
1
41
1
41
1
41
1
41
1
10
53.656916492127223
20
-24.932742138965338
30
0
10
51.186613465292119
20
-25.806421045723962
30
0
10
51.186613465292119
20
-25.806421045723962
30
0
10
48.942669360779583
20
-23.595501411222823
30
0
0
SPLINE
5
162
100
AcDbEntity
8
0
100
AcDbSpline
70
4
71
3
72
8
73
4
74
0
42
0.000000001
43
0.0000000001
44
0.0000000001
40
0
40
0
40
0
40
0
40
1
40
1
40
1
40
1
41
1
41
1
41
1
41
1
10
-51.552547056532951
20
21.102443523939947
30
0
10
-47.554552434938209
20
20.171547098692741
30
0
10
-47.554552434938209
20
20.171547098692741
30
0
10
-47.485692579604247
20
17.092770230508378
30
0
0
SPLINE
5
163
100
AcDbEntity
8
0
100
AcDbSpline
70
4
71
3
72
8
73
4
74
0
42
0.000000001
43
0.0000000001
44
0.0000000001
40
0
40
0
40
0
40
0
40
1
40
1
40
1
40
1
41
1
41
1
41
1
41
1
10
-47.485692579604247
20
17.092770230508378
30
0
10
-47.416831714964964
20
14.013994371629295
30
0
10
-47.416831714964964
20
14.013994371629295
30
0
10
-51.483687201198983
20
12.75682587200059
30
0
0
SPLINE
5
164
100
AcDbEntity
8
0
100
AcDbSpline
70
4
71
3
72
8
73
4
74
0
42
0.000000001
43
0.0000000001
44
0.0000000001
40
0
40
0
40
0
40
0
40
1
40
1
40
1
40
1
41
1
41
1
41
1
41
1
10
48.515967370016213
20
-6.4994034650558419
30
0
10
51.039973514221941
20
-8.1926423274114057
30
0
10
51.039973514221941
20
-8.1926423274114057
30
0
10
50.902901777568331
20
-10.847813753548685
30
0
0
SPLINE
5
165
100
AcDbEntity
8
0
100
AcDbSpline
70
4
71
3
72
8
73
4
74
0
42
0.000000001
43
0.0000000001
44
0.0000000001
40
0
40
0
40
0
40
0
40
1
40
1
40
1
40
1
41
1
41
1
41
1
41
1
10
50.902901777568331
20
-10.847813753548685
30
0
10
50.765830040914679
20
-13.502985179685965
30
0
10
50.765830040914679
20
-13.502985179685965
30
0
10
49.030123647990678
20
-14.45375886386973
30
0
0
SPLINE
5
166
100
AcDbEntity
8
0
100
AcDbSpline
70
4
71
3
72
8
73
4
74
0
42
0.000000001
43
0.0000000001
44
0.0000000001
40
0
40
0
40
0
40
0
40
1
40
1
40
1
40
1
41
1
41
1
41
1
41
1
10
39.946747208578245
20
-25.144272347552974
30
0
10
40.497076989156859
20
-23.955318757159905
30
0
10
40.497076989156859
20
-23.955318757159905
30
0
10
43.234910520854456
20
-23.057743537687667
30
0
0
SPLINE
5
167
100
AcDbEntity
8
0
100
AcDbSpline
70
4
71
3
72
8
73
4
74
0
42
0.000000001
43
0.0000000001
44
0.0000000001
40
0
40
0
40
0
40
0
40
1
40
1
40
1
40
1
41
1
41
1
41
1
41
1
10
43.234910520854456
20
-23.057743537687667
30
0
10
45.972744052552045
20
-22.160164280994135
30
0
10
45.972744052552045
20
-22.160164280994135
30
0
10
48.216688157064581
20
-24.371083915495273
30
0
0
SPLINE
5
168
100
AcDbEntity
8
0
100
AcDbSpline
70
4
71
3
72
8
73
4
74
0
42
0.000000001
43
0.0000000001
44
0.0000000001
40
0
40
0
40
0
40
0
40
1
40
1
40
1
40
1
41
1
41
1
41
1
41
1
10
48.216688157064581
20
-24.371083915495273
30
0
10
50.460632261577118
20
-26.582007587217689
30
0
10
50.460632261577118
20
-26.582007587217689
30
0
10
49.755305481893686
20
-28.57521199014128
30
0
0
SPLINE
5
169
100
AcDbEntity
8
0
100
AcDbSpline
70
4
71
3
72
8
73
4
74
0
42
0.000000001
43
0.0000000001
44
0.0000000001
40
0
40
0
40
0
40
0
40
1
40
1
40
1
40
1
41
1
41
1
41
1
41
1
10
-46.415036637641052
20
17.129104212658142
30
0
10
-46.483897502280335
20
20.207881080842505
30
0
10
-46.483897502280335
20
20.207881080842505
30
0
10
-44.944326383925535
20
21.541611444688336
30
0
0
SPLINE
5
170
100
AcDbEntity
8
0
100
AcDbSpline
70
4
71
3
72
8
73
4
74
0
42
0.000000001
43
0.0000000001
44
0.0000000001
40
0
40
0
40
0
40
0
40
1
40
1
40
1
40
1
41
1
41
1
41
1
41
1
10
-44.944326383925535
20
21.541611444688336
30
0
10
-43.404753246960098
20
22.875341808534166
30
0
10
-43.404753246960098
20
22.875341808534166
30
0
10
-40.263148132023275
20
21.229088127351297
30
0
0
SPLINE
5
171
100
AcDbEntity
8
0
100
AcDbSpline
70
4
71
3
72
8
73
4
74
0
42
0.000000001
43
0.0000000001
44
0.0000000001
40
0
40
0
40
0
40
0
40
1
40
1
40
1
40
1
41
1
41
1
41
1
41
1
10
43.330810674968205
20
20.653367252882866
30
0
10
46.676472092611441
20
21.381728398538158
30
0
10
46.676472092611441
20
21.381728398538158
30
0
10
47.506710498474888
20
20.588776759044869
30
0
0
SPLINE
5
172
100
AcDbEntity
8
0
100
AcDbSpline
70
4
71
3
72
8
73
4
74
0
42
0.000000001
43
0.0000000001
44
0.0000000001
40
0
40
0
40
0
40
0
40
1
40
1
40
1
40
1
41
1
41
1
41
1
41
1
10
47.506710498474888
20
20.588776759044869
30
0
10
48.336940829895774
20
19.795826128856895
30
0
10
48.336940829895774
20
19.795826128856895
30
0
10
47.76348584586664
20
16.112650994198106
30
0
0
SPLINE
5
173
100
AcDbEntity
8
0
100
AcDbSpline
70
4
71
3
72
8
73
4
74
0
42
0.000000001
43
0.0000000001
44
0.0000000001
40
0
40
0
40
0
40
0
40
1
40
1
40
1
40
1
41
1
41
1
41
1
41
1
10
7.5423661241361284
20
21.237355347212699
30
0
10
4.6342789341438717
20
22.894364185866252
30
0
10
4.6342789341438717
20
22.894364185866252
30
0
10
4.7859331140348171
20
26.331571614480538
30
0
0
SPLINE
5
174
100
AcDbEntity
8
0
100
AcDbSpline
70
4
71
3
72
8
73
4
74
0
42
0.000000001
43
0.0000000001
44
0.0000000001
40
0
40
0
40
0
40
0
40
1
40
1
40
1
40
1
41
1
41
1
41
1
41
1
10
14.137171110454076
20
25.763926696515611
30
0
10
14.314889590882132
20
21.759074349936363
30
0
10
14.314889590882132
20
21.759074349936363
30
0
10
12.382667415283999
20
20.669710933900411
30
0
0
SPLINE
5
175
100
AcDbEntity
8
0
100
AcDbSpline
70
4
71
3
72
8
73
4
74
0
42
0.000000001
43
0.0000000001
44
0.0000000001
40
0
40
0
40
0
40
0
40
1
40
1
40
1
40
1
41
1
41
1
41
1
41
1
10
49.170465533875273
20
-5.6107505045964601
30
0
10
46.646459389669545
20
-3.9175116422409317
30
0
10
46.646459389669545
20
-3.9175116422409317
30
0
10
46.589962515178165
20
-2.0218041144444854
30
0
0
SPLINE
5
176
100
AcDbEntity
8
0
100
AcDbSpline
70
4
71
3
72
8
73
4
74
0
42
0.000000001
43
0.0000000001
44
0.0000000001
40
0
40
0
40
0
40
0
40
1
40
1
40
1
40
1
41
1
41
1
41
1
41
1
10
46.589962515178165
20
-2.0218041144444854
30
0
10
46.533465640686785
20
-0.12609658664807455
30
0
10
46.533465640686785
20
-0.12609658664807455
30
0
10
49.037358348511489
20
1.495800538596086
30
0
0
SPLINE
5
177
100
AcDbEntity
8
0
100
AcDbSpline
70
4
71
3
72
8
73
4
74
0
42
0.000000001
43
0.0000000001
44
0.0000000001
40
0
40
0
40
0
40
0
40
1
40
1
40
1
40
1
41
1
41
1
41
1
41
1
10
-27.92840967084674
20
21.991994766132521
30
0
10
-30.704828944858985
20
23.791227845089118
30
0
10
-30.704828944858985
20
23.791227845089118
30
0
10
-30.69273141131508
20
26.801860455410171
30
0
0
SPLINE
5
178
100
AcDbEntity
8
0
100
AcDbSpline
70
4
71
3
72
8
73
4
74
0
42
0.000000001
43
0.0000000001
44
0.0000000001
40
0
40
0
40
0
40
0
40
1
40
1
40
1
40
1
41
1
41
1
41
1
41
1
10
-19.905849455850412
20
26.976972152527665
30
0
10
-19.900976529774155
20
24.141450734671466
30
0
10
-19.900976529774155
20
24.141450734671466
30
0
10
-22.526482453999005
20
22.167106210923677
30
0
0
SPLINE
5
179
100
AcDbEntity
8
0
100
AcDbSpline
70
4
71
3
72
8
73
4
74
0
42
0.000000001
43
0.0000000001
44
0.0000000001
40
0
40
0
40
0
40
0
40
1
40
1
40
1
40
1
41
1
41
1
41
1
41
1
10
-22.526482453999005
20
22.167106210923677
30
0
10
-25.151990396834499
20
20.192761687175924
30
0
10
-25.151990396834499
20
20.192761687175924
30
0
10
-27.92840967084674
20
21.991994766132521
30
0
0
SPLINE
5
180
100
AcDbEntity
8
0
100
AcDbSpline
70
4
71
3
72
8
73
4
74
0
42
0.000000001
43
0.0000000001
44
0.0000000001
40
0
40
0
40
0
40
0
40
1
40
1
40
1
40
1
41
1
41
1
41
1
41
1
10
-51.389174841897727
20
-22.816454971098334
30
0
10
-47.327786762572373
20
-22.813669288420115
30
0
10
-47.327786762572373
20
-22.813669288420115
30
0
10
-46.417373179452667
20
-25.035420787596152
30
0
0
SPLINE
5
181
100
AcDbEntity
8
0
100
AcDbSpline
70
4
71
3
72
8
73
4
74
0
42
0.000000001
43
0.0000000001
44
0.0000000001
40
0
40
0
40
0
40
0
40
1
40
1
40
1
40
1
41
1
41
1
41
1
41
1
10
21.78322410677163
20
-26.734004930916822
30
0
10
22.649627940796684
20
-24.117978402240485
30
0
10
22.649627940796684
20
-24.117978402240485
30
0
10
25.274152820252258
20
-23.786441791319248
30
0
0
SPLINE
5
182
100
AcDbEntity
8
0
100
AcDbSpline
70
4
71
3
72
8
73
4
74
0
42
0.000000001
43
0.0000000001
44
0.0000000001
40
0
40
0
40
0
40
0
40
1
40
1
40
1
40
1
41
1
41
1
41
1
41
1
10
25.274152820252258
20
-23.786441791319248
30
0
10
27.898669625265278
20
-23.454905180398029
30
0
10
27.898669625265278
20
-23.454905180398029
30
0
10
29.645438004476699
20
-25.650317847990394
30
0
0
SPLINE
5
183
100
AcDbEntity
8
0
100
AcDbSpline
70
4
71
3
72
8
73
4
74
0
42
0.000000001
43
0.0000000001
44
0.0000000001
40
0
40
0
40
0
40
0
40
1
40
1
40
1
40
1
41
1
41
1
41
1
41
1
10
-8.4594106982718831
20
-20.924201286100761
30
0
10
-6.8764162372123128
20
-24.644738885028588
30
0
10
-6.8764162372123128
20
-24.644738885028588
30
0
10
-7.9058349917899484
20
-25.968987834715271
30
0
0
SPLINE
5
184
100
AcDbEntity
8
0
100
AcDbSpline
70
4
71
3
72
8
73
4
74
0
42
0.000000001
43
0.0000000001
44
0.0000000001
40
0
40
0
40
0
40
0
40
1
40
1
40
1
40
1
41
1
41
1
41
1
41
1
10
-7.9058349917899484
20
-25.968987834715271
30
0
10
-8.9352537463675841
20
-27.293236784401955
30
0
10
-8.9352537463675841
20
-27.293236784401955
30
0
10
-12.255581600524064
20
-27.139580142759705
30
0
0
SPLINE
5
185
100
AcDbEntity
8
0
100
AcDbSpline
70
4
71
3
72
8
73
4
74
0
42
0.000000001
43
0.0000000001
44
0.0000000001
40
0
40
0
40
0
40
0
40
1
40
1
40
1
40
1
41
1
41
1
41
1
41
1
10
-12.255581600524064
20
-27.139580142759705
30
0
10
-15.575909454680561
20
-26.985923501117455
30
0
10
-15.575909454680561
20
-26.985923501117455
30
0
10
-16.523687520679921
20
-24.35603719181163
30
0
0
SPLINE
5
186
100
AcDbEntity
8
0
100
AcDbSpline
70
4
71
3
72
8
73
4
74
0
42
0.000000001
43
0.0000000001
44
0.0000000001
40
0
40
0
40
0
40
0
40
1
40
1
40
1
40
1
41
1
41
1
41
1
41
1
10
35.238693174663069
20
-26.451956578357425
30
0
10
32.2669026702075
20
-27.143237865232823
30
0
10
32.2669026702075
20
-27.143237865232823
30
0
10
30.520134290996062
20
-24.947825197640459
30
0
0
SPLINE
5
187
100
AcDbEntity
8
0
100
AcDbSpline
70
4
71
3
72
8
73
4
74
0
42
0.000000001
43
0.0000000001
44
0.0000000001
40
0
40
0
40
0
40
0
40
1
40
1
40
1
40
1
41
1
41
1
41
1
41
1
10
38.760813459697232
20
-24.571729775531495
30
0
10
38.210483679118603
20
-25.760683365924564
30
0
10
38.210483679118603
20
-25.760683365924564
30
0
10
35.238693174663069
20
-26.451956578357425
30
0
0
LWPOLYLINE
5
188
100
AcDbEntity
8
0
100
AcDbPolyline
90
5
70
1
43
0.0
10
45.974999999999994
20
-20.575000000000003
10
45.974999999999994
20
20.575000000000003
10
-45.959751032254417
20
20.574999999996393
10
-45.974999999999973
20
20.575000000000003
10
-45.974999999999994
20
-20.575000000000003
0
SPLINE
5
189
100
AcDbEntity
8
0
100
AcDbSpline
70
4
71
3
72
8
73
4
74
0
42
0.000000001
43
0.0000000001
44
0.0000000001
40
0
40
0
40
0
40
0
40
0.29688459314335663
40
0.29688459314335663
40
0.29688459314335663
40
0.29688459314335663
41
1
41
1
41
1
41
1
10
-51.36670871482
20
22.072382906810937
30
0
10
-52.55365164652968
20
22.348751863102656
30
0
10
-53.388209508874354
20
22.543071134248251
30
0
10
-53.97499999980225
20
22.769364479860329
30
0
0
SPLINE
5
190
100
AcDbEntity
8
0
100
AcDbSpline
70
4
71
3
72
8
73
4
74
0
42
0.000000001
43
0.0000000001
44
0.0000000001
40
0.75112606878988852
40
0.75112606878988852
40
0.75112606878988852
40
0.75112606878988852
40
1
40
1
40
1
40
1
41
1
41
1
41
1
41
1
10
-44.35782230859661
20
28.574998662529222
30
0
10
-44.273831848509474
20
28.150431377633005
30
0
10
-44.275880861113293
20
27.5851903315058
30
0
10
-44.278608782149419
20
26.832665463026864
30
0
0
SPLINE
5
191
100
AcDbEntity
8
0
100
AcDbSpline
70
4
71
3
72
8
73
4
74
0
42
0.000000001
43
0.0000000001
44
0.0000000001
40
0
40
0
40
0
40
0
40
0.25481563479113895
40
0.25481563479113895
40
0.25481563479113895
40
0.25481563479113895
41
1
41
1
41
1
41
1
10
-42.920691425658326
20
26.802497831718632
30
0
10
-42.917898120091202
20
27.572988775169737
30
0
10
-42.915816592455329
20
28.147146579764524
30
0
10
-42.824178388567198
20
28.574999998911203
30
0
0
SPLINE
5
192
100
AcDbEntity
8
0
100
AcDbSpline
70
4
71
3
72
8
73
4
74
0
42
0.000000001
43
0.0000000001
44
0.0000000001
40
0.74626248803210593
40
0.74626248803210593
40
0.74626248803210593
40
0.74626248803210593
40
1
40
1
40
1
40
1
41
1
41
1
41
1
41
1
10
-32.114045018722123
20
28.574999999617123
30
0
10
-32.026806044869687
20
28.149572328048862
30
0
10
-32.029096770756979
20
27.579494535863276
30
0
10
-32.032166368819354
20
26.815583979821689
30
0
0
SPLINE
5
193
100
AcDbEntity
8
0
100
AcDbSpline
70
4
71
3
72
8
73
4
74
0
42
0.000000001
43
0.0000000001
44
0.0000000001
40
0
40
0
40
0
40
0
40
0.2564759478793539
40
0.2564759478793539
40
0.2564759478793539
40
0.2564759478793539
41
1
41
1
41
1
41
1
10
-30.69273141131508
20
26.801860455410171
30
0
10
-30.689628684932408
20
27.574015372574394
30
0
10
-30.687321733239742
20
28.148131125449215
30
0
10
-30.594757074950991
20
28.574999996412998
30
0
0
SPLINE
5
194
100
AcDbEntity
8
0
100
AcDbSpline
70
4
71
3
72
8
73
4
74
0
42
0.000000001
43
0.0000000001
44
0.0000000001
40
0.75852516009319648
40
0.75852516009319648
40
0.75852516009319648
40
0.75852516009319648
40
1
40
1
40
1
40
1
41
1
41
1
41
1
41
1
10
-19.984418175170681
20
28.57499999089335
30
0
10
-19.90791869314014
20
28.181046673608527
30
0
10
-19.907026144894552
20
27.66167917202635
30
0
10
-19.905849455850412
20
26.976972152527665
30
0
0
SPLINE
5
195
100
AcDbEntity
8
0
100
AcDbSpline
70
4
71
3
72
8
73
4
74
0
42
0.000000001
43
0.0000000001
44
0.0000000001
40
0
40
0
40
0
40
0
40
0.2414462281394737
40
0.2414462281394737
40
0.2414462281394737
40
0.2414462281394737
41
1
41
1
41
1
41
1
10
-18.578661409077135
20
26.977112193640558
30
0
10
-18.579837958698249
20
27.661738083867395
30
0
10
-18.580730434851127
20
28.181063635212332
30
0
10
-18.505947041958922
20
28.574999991008589
30
0
0
SPLINE
5
196
100
AcDbEntity
8
0
100
AcDbSpline
70
4
71
3
72
8
73
4
74
0
42
0.000000001
43
0.0000000001
44
0.0000000001
40
0.7475227009991402
40
0.7475227009991402
40
0.7475227009991402
40
0.7475227009991402
40
1
40
1
40
1
40
1
41
1
41
1
41
1
41
1
10
-7.9615146507557357
20
28.574999999926824
30
0
10
-7.8799575427112591
20
28.156986838216085
30
0
10
-7.8862794826351346
20
27.597788888572516
30
0
10
-7.8947366705110689
20
26.84972070429378
30
0
0
SPLINE
5
197
100
AcDbEntity
8
0
100
AcDbSpline
70
4
71
3
72
8
73
4
74
0
42
0.000000001
43
0.0000000001
44
0.0000000001
40
0
40
0
40
0
40
0
40
0.25402434590650858
40
0.25402434590650858
40
0.25402434590650858
40
0.25402434590650858
41
1
41
1
41
1
41
1
10
-6.6033305158785005
20
26.842052507138767
30
0
10
-6.5948225323957494
20
27.594704456271941
30
0
10
-6.5884757838521875
20
28.156164486331299
30
0
10
-6.4993149361106992
20
28.574999999502182
30
0
0
SPLINE
5
198
100
AcDbEntity
8
0
100
AcDbSpline
70
4
71
3
72
8
73
4
74
0
42
0.000000001
43
0.0000000001
44
0.0000000001
40
0.70995205877570222
40
0.70995205877570222
40
0.70995205877570222
40
0.70995205877570222
40
1
40
1
40
1
40
1
41
1
41
1
41
1
41
1
10
3.5512748918139532
20
28.574999999947014
30
0
10
3.6547826198432065
20
28.072502882534927
30
0
10
3.6235539709476545
20
27.364712671631626
30
0
10
3.5795669882922265
20
26.367757733401191
30
0
0
SPLINE
5
199
100
AcDbEntity
8
0
100
AcDbSpline
70
4
71
3
72
8
73
4
74
0
42
0.000000001
43
0.0000000001
44
0.0000000001
40
0
40
0
40
0
40
0
40
0.297079726035338
40
0.297079726035338
40
0.297079726035338
40
0.297079726035338
41
1
41
1
41
1
41
1
10
4.7859331140348171
20
26.331571614480538
30
0
10
4.8309864962489355
20
27.352696255699911
30
0
10
4.8626554320179185
20
28.0704654682579
30
0
10
5.0031891080407531
20
28.57499999979256
30
0
0
SPLINE
5
200
100
AcDbEntity
8
0
100
AcDbSpline
70
4
71
3
72
8
73
4
74
0
42
0.000000001
43
0.0000000001
44
0.0000000001
40
0.66800413391274305
40
0.66800413391274305
40
0.66800413391274305
40
0.66800413391274305
40
1
40
1
40
1
40
1
41
1
41
1
41
1
41
1
10
13.847358953477862
20
28.574999976314103
30
0
10
14.038755862762297
20
27.981695691097677
30
0
10
14.07816930962465
20
27.09352111986977
30
0
10
14.137171110454076
20
25.763926696515611
30
0
0
SPLINE
5
201
100
AcDbEntity
8
0
100
AcDbSpline
70
4
71
3
72
8
73
4
74
0
42
0.000000001
43
0.0000000001
44
0.0000000001
40
0
40
0
40
0
40
0
40
0.32433842935563256
40
0.32433842935563256
40
0.32433842935563256
40
0.32433842935563256
41
1
41
1
41
1
41
1
10
15.297072856568166
20
25.805452545222174
30
0
10
15.239431923758659
20
27.104380065112906
30
0
10
15.200486160563182
20
27.982015473355474
30
0
10
15.337124240481792
20
28.574999991741752
30
0
0
SPLINE
5
202
100
AcDbEntity
8
0
100
AcDbSpline
70
4
71
3
72
8
73
4
74
0
42
0.000000001
43
0.0000000001
44
0.0000000001
40
0.75908585482894375
40
0.75908585482894375
40
0.75908585482894375
40
0.75908585482894375
40
1
40
1
40
1
40
1
41
1
41
1
41
1
41
1
10
24.644996916373579
20
28.574999989170081
30
0
10
24.724601689527415
20
28.182946280423124
30
0
10
24.741495582288078
20
27.666464901863765
30
0
10
24.763751158061478
20
26.986065741118317
30
0
0
SPLINE
5
203
100
AcDbEntity
8
0
100
AcDbSpline
70
4
71
3
72
8
73
4
74
0
42
0.000000001
43
0.0000000001
44
0.0000000001
40
0
40
0
40
0
40
0
40
0.23165197489519379
40
0.23165197489519379
40
0.23165197489519379
40
0.23165197489519379
41
1
41
1
41
1
41
1
10
25.959535726848095
20
27.031838241951185
30
0
10
25.9381339170993
20
27.686078818783251
30
0
10
25.921689878845147
20
28.188763273935603
30
0
10
25.971480340094825
20
28.574999882302791
30
0
0
SPLINE
5
204
100
AcDbEntity
8
0
100
AcDbSpline
70
4
71
3
72
8
73
4
74
0
42
0.000000001
43
0.0000000001
44
0.0000000001
40
0.72933629830599689
40
0.72933629830599689
40
0.72933629830599689
40
0.72933629830599689
40
1
40
1
40
1
40
1
41
1
41
1
41
1
41
1
10
35.774007270149454
20
28.574999689665344
30
0
10
35.859851074967622
20
28.09957945616183
30
0
10
35.841026711844883
20
27.447726210124635
30
0
10
35.815216446859495
20
26.553963966902643
30
0
0
SPLINE
5
205
100
AcDbEntity
8
0
100
AcDbSpline
70
4
71
3
72
8
73
4
74
0
42
0.000000001
43
0.0000000001
44
0.0000000001
40
0
40
0
40
0
40
0
40
0.27340377980787223
40
0.27340377980787223
40
0.27340377980787223
40
0.27340377980787223
41
1
41
1
41
1
41
1
10
37.016798465393833
20
26.539578842855036
30
0
10
37.042872229527319
20
27.442389203791365
30
0
10
37.061817327992884
20
28.098367799597995
30
0
10
37.174076698145917
20
28.574999367838032
30
0
0
SPLINE
5
206
100
AcDbEntity
8
0
100
AcDbSpline
70
4
71
3
72
8
73
4
74
0
42
0.000000001
43
0.0000000001
44
0.0000000001
40
0.69813289800124434
40
0.69813289800124434
40
0.69813289800124434
40
0.69813289800124434
40
1
40
1
40
1
40
1
41
1
41
1
41
1
41
1
10
46.566623558194635
20
28.574999999625661
30
0
10
46.676778389302633
20
28.027292247105695
30
0
10
46.644671938054216
20
27.242760026824925
30
0
10
46.598682913127391
20
26.119002326067822
30
0
0
SPLINE
5
207
100
AcDbEntity
8
0
100
AcDbSpline
70
4
71
3
72
8
73
4
74
0
42
0.000000001
43
0.0000000001
44
0.0000000001
40
0
40
0
40
0
40
0
40
0.30609428271434447
40
0.30609428271434447
40
0.30609428271434447
40
0.30609428271434447
41
1
41
1
41
1
41
1
10
47.779747773153431
20
26.096131972210159
30
0
10
47.826380803067927
20
27.235626157169026
30
0
10
47.858739729139941
20
28.02632768692574
30
0
10
48.013191133899731
20
28.574999999090437
30
0
0
SPLINE
5
208
100
AcDbEntity
8
0
100
AcDbSpline
70
4
71
3
72
8
73
4
74
0
42
0.000000001
43
0.0000000001
44
0.0000000001
40
0.78136938553635116
40
0.78136938553635116
40
0.78136938553635116
40
0.78136938553635116
40
1
40
1
40
1
40
1
41
1
41
1
41
1
41
1
10
53.974999999524528
20
20.779002901267766
30
0
10
53.554402150971654
20
20.769872546378725
30
0
10
53.029841194176115
20
20.772044877401111
30
0
10
52.358505758586361
20
20.774825036263991
30
0
0
SPLINE
5
209
100
AcDbEntity
8
0
100
AcDbSpline
70
4
71
3
72
8
73
4
74
0
42
0.000000001
43
0.0000000001
44
0.0000000001
40
0
40
0
40
0
40
0
40
0.21877441020001598
40
0.21877441020001598
40
0.21877441020001598
40
0.21877441020001598
41
1
41
1
41
1
41
1
10
52.359741148295846
20
19.625203064815757
30
0
10
53.031519894994894
20
19.62242107741211
30
0
10
53.556330642599946
20
19.620247717661879
30
0
10
53.974999983284363
20
19.580845938827878
30
0
0
SPLINE
5
210
100
AcDbEntity
8
0
100
AcDbSpline
70
4
71
3
72
8
73
4
74
0
42
0.000000001
43
0.0000000001
44
0.0000000001
40
0.053486866897161638
40
0.053486866897161638
40
0.053486866897161638
40
0.053486866897161638
40
1
40
1
40
1
40
1
41
1
41
1
41
1
41
1
10
53.974999999983957
20
10.8709848300928
30
0
10
51.679690736362275
20
9.7407771932798823
30
0
10
51.590017346563059
20
9.8049309474401252
30
0
10
49.913467662476343
20
11.004360973573277
30
0
0
SPLINE
5
211
100
AcDbEntity
8
0
100
AcDbSpline
70
4
71
3
72
8
73
4
74
0
42
0.000000001
43
0.0000000001
44
0.0000000001
40
0
40
0
40
0
40
0
40
0.060184163631352802
40
0.060184163631352802
40
0.060184163631352802
40
0.060184163631352802
41
1
41
1
41
1
41
1
10
53.60064570202713
20
-15.784063645465594
30
0
10
53.733238619935747
20
-15.855171773707069
30
0
10
53.857851543976594
20
-15.922000318722937
30
0
10
53.974999999986757
20
-15.985580017113602
30
0
0
SPLINE
5
212
100
AcDbEntity
8
0
100
AcDbSpline
70
4
71
3
72
8
73
4
74
0
42
0.000000001
43
0.0000000001
44
0.0000000001
40
0.9550905096809148
40
0.9550905096809148
40
0.9550905096809148
40
0.9550905096809148
40
1
40
1
40
1
40
1
41
1
41
1
41
1
41
1
10
53.97499999999048
20
-24.819918600646602
30
0
10
53.873815039722516
20
-24.856031280222652
30
0
10
53.767856904615186
20
-24.893505664560269
30
0
10
53.656916492127223
20
-24.932742138965338
30
0
0
SPLINE
5
213
100
AcDbEntity
8
0
100
AcDbSpline
70
4
71
3
72
8
73
4
74
0
42
0.000000001
43
0.0000000001
44
0.0000000001
40
0.091695636730235591
40
0.091695636730235591
40
0.091695636730235591
40
0.091695636730235591
40
1
40
1
40
1
40
1
41
1
41
1
41
1
41
1
10
40.628773498007433
20
-28.574999999295304
30
0
10
39.401044650211801
20
-26.323225106119537
30
0
10
39.446880267641404
20
-26.22420041440655
30
0
10
39.946747208578245
20
-25.144272347552974
30
0
0
SPLINE
5
214
100
AcDbEntity
8
0
100
AcDbSpline
70
4
71
3
72
8
73
4
74
0
42
0.000000001
43
0.0000000001
44
0.0000000001
40
0
40
0
40
0
40
0
40
0.69852130842840321
40
0.69852130842840321
40
0.69852130842840321
40
0.69852130842840321
41
1
41
1
41
1
41
1
10
29.645438004476699
20
-25.650317847990394
30
0
10
30.865592938244824
20
-27.183860377097304
30
0
10
31.233443651191863
20
-27.646190772241852
30
0
10
31.068422564142644
20
-28.57499999365448
30
0
0
SPLINE
5
215
100
AcDbEntity
8
0
100
AcDbSpline
70
4
71
3
72
8
73
4
74
0
42
0.000000001
43
0.0000000001
44
0.0000000001
40
0.68437842475188393
40
0.68437842475188393
40
0.68437842475188393
40
0.68437842475188393
40
1
40
1
40
1
40
1
41
1
41
1
41
1
41
1
10
21.250083573036591
20
-28.57500002616565
30
0
10
21.322616860728132
20
-28.12475309951196
30
0
10
21.509765815407356
20
-27.559679344788517
30
0
10
21.78322410677163
20
-26.734004930916822
30
0
0
SPLINE
5
216
100
AcDbEntity
8
0
100
AcDbSpline
70
4
71
3
72
8
73
4
74
0
42
0.000000001
43
0.0000000001
44
0.0000000001
40
0
40
0
40
0
40
0
40
0.43282973409356296
40
0.43282973409356296
40
0.43282973409356296
40
0.43282973409356296
41
1
41
1
41
1
41
1
10
20.69373149965493
20
-26.38583093113045
30
0
10
20.31872615855622
20
-27.518124997919141
30
0
10
20.106034279528934
20
-28.160328524863971
30
0
10
19.760893385979113
20
-28.574999994904928
30
0
0
SPLINE
5
217
100
AcDbEntity
8
0
100
AcDbSpline
70
4
71
3
72
8
73
4
74
0
42
0.000000001
43
0.0000000001
44
0.0000000001
40
0.97172332004237516
40
0.97172332004237516
40
0.97172332004237516
40
0.97172332004237516
40
1
40
1
40
1
40
1
41
1
41
1
41
1
41
1
10
12.773699451787675
20
-28.574999910333965
30
0
10
12.729515524960291
20
-28.526395785074197
30
0
10
12.684110287647057
20
-28.476362832129784
30
0
10
12.637383779826648
20
-28.424873944385247
30
0
0
SPLINE
5
218
100
AcDbEntity
8
0
100
AcDbSpline
70
4
71
3
72
8
73
4
74
0
42
0.000000001
43
0.0000000001
44
0.0000000001
40
0
40
0
40
0
40
0
40
0.45930681958669251
40
0.45930681958669251
40
0.45930681958669251
40
0.45930681958669251
41
1
41
1
41
1
41
1
10
1.1335276613065659
20
-26.77127252048594
30
0
10
1.8859860808134765
20
-27.602133581866084
30
0
10
2.2928352167854387
20
-28.051374491625296
30
0
10
2.4541105886295353
20
-28.575000490638935
30
0
0
SPLINE
5
219
100
AcDbEntity
8
0
100
AcDbSpline
70
4
71
3
72
8
73
4
74
0
42
0.000000001
43
0.0000000001
44
0.0000000001
40
0.45030333204246498
40
0.45030333204246498
40
0.45030333204246498
40
0.45030333204246498
40
1
40
1
40
1
40
1
41
1
41
1
41
1
41
1
10
-7.6504522050558599
20
-28.574999999995217
30
0
10
-7.6671637919905002
20
-27.913981349913897
30
0
10
-7.4123505200459983
20
-27.586189687997162
30
0
10
-6.8464802414745929
20
-26.858254452808126
30
0
0
SPLINE
5
220
100
AcDbEntity
8
0
100
AcDbSpline
70
4
71
3
72
8
73
4
74
0
42
0.000000001
43
0.0000000001
44
0.0000000001
40
0.82080612902033456
40
0.82080612902033456
40
0.82080612902033456
40
0.82080612902033456
40
1
40
1
40
1
40
1
41
1
41
1
41
1
41
1
10
-26.132686049088555
20
-28.574999242132982
30
0
10
-26.259749125298555
20
-28.279169880594125
30
0
10
-26.391166927953435
20
-27.921322565217018
30
0
10
-26.551275141097179
20
-27.485351995888774
30
0
0
SPLINE
5
221
100
AcDbEntity
8
0
100
AcDbSpline
70
4
71
3
72
8
73
4
74
0
42
0.000000001
43
0.0000000001
44
0.0000000001
40
0
40
0
40
0
40
0
40
0.10238212412825559
40
0.10238212412825559
40
0.10238212412825559
40
0.10238212412825559
41
1
41
1
41
1
41
1
10
-27.631996884998745
20
-27.899199474119563
30
0
10
-27.54051952682525
20
-28.148290130141099
30
0
10
-27.458407814891196
20
-28.371878355698644
30
0
10
-27.386228678214763
20
-28.575000001238521
30
0
0
SPLINE
5
222
100
AcDbEntity
8
0
100
AcDbSpline
70
4
71
3
72
8
73
4
74
0
42
0.000000001
43
0.0000000001
44
0.0000000001
40
0
40
0
40
0
40
0
40
0.89611982117646405
40
0.89611982117646405
40
0.89611982117646405
40
0.89611982117646405
41
1
41
1
41
1
41
1
10
-17.608880487141093
20
-24.783316505216977
30
0
10
-16.759557776122779
20
-27.140009754426547
30
0
10
-16.671329981023305
20
-27.384823470586657
30
0
10
-17.4986973340825
20
-28.574999998400365
30
0
0
SPLINE
5
223
100
AcDbEntity
8
0
100
AcDbSpline
70
4
71
3
72
8
73
4
74
0
42
0.000000001
43
0.0000000001
44
0.0000000001
40
0.39282391004417994
40
0.39282391004417994
40
0.39282391004417994
40
0.39282391004417994
40
1
40
1
40
1
40
1
41
1
41
1
41
1
41
1
10
-36.72574847652848
20
-28.574999998055375
30
0
10
-36.80384460204057
20
-27.735676448370072
30
0
10
-36.520575845682067
20
-27.379230238892617
30
0
10
-35.79946710174984
20
-26.471835855904651
30
0
0
SPLINE
5
224
100
AcDbEntity
8
0
100
AcDbSpline
70
4
71
3
72
8
73
4
74
0
42
0.000000001
43
0.0000000001
44
0.0000000001
40
0
40
0
40
0
40
0
40
0.90011196544131544
40
0.90011196544131544
40
0.90011196544131544
40
0.90011196544131544
41
1
41
1
41
1
41
1
10
-46.417373179452667
20
-25.035420787596152
30
0
10
-45.59789992827411
20
-27.035249530192846
30
0
10
-45.516044355840464
20
-27.235008492744797
30
0
10
-46.285498014643949
20
-28.574999999986943
30
0
0
SPLINE
5
225
100
AcDbEntity
8
0
100
AcDbSpline
70
4
71
3
72
8
73
4
74
0
42
0.000000001
43
0.0000000001
44
0.0000000001
40
0.71355553524799409
40
0.71355553524799409
40
0.71355553524799409
40
0.71355553524799409
40
1
40
1
40
1
40
1
41
1
41
1
41
1
41
1
10
-53.974999999981094
20
-22.909442854395632
30
0
10
-53.382660714726818
20
-22.817824273023966
30
0
10
-52.552537120985221
20
-22.817254070921752
30
0
10
-51.389174841897727
20
-22.816454971098334
30
0
0
SPLINE
5
226
100
AcDbEntity
8
0
100
AcDbSpline
70
4
71
3
72
8
73
4
74
0
42
0.000000001
43
0.0000000001
44
0.0000000001
40
0
40
0
40
0
40
0
40
0.28728731940202068
40
0.28728731940202068
40
0.28728731940202068
40
0.28728731940202068
41
1
41
1
41
1
41
1
10
-51.383952191528721
20
-21.827642588082394
30
0
10
-52.550737630869733
20
-21.828442879391723
30
0
10
-53.382320409025155
20
-21.829013257156053
30
0
10
-53.974999999983424
20
-21.733570512062727
30
0
0
SPLINE
5
227
100
AcDbEntity
8
0
100
AcDbSpline
70
4
71
3
72
8
73
4
74
0
42
0.000000001
43
0.0000000001
44
0.0000000001
40
0.71756245782445227
40
0.71756245782445227
40
0.71756245782445227
40
0.71756245782445227
40
1
40
1
40
1
40
1
41
1
41
1
41
1
41
1
10
-53.974999999989194
20
-13.861249080840249
30
0
10
-53.396263709831629
20
-13.779834102421852
30
0
10
-52.589732816462146
20
-13.793298563149449
30
0
10
-51.465745789862716
20
-13.812062728666721
30
0
0
SPLINE
5
228
100
AcDbEntity
8
0
100
AcDbSpline
70
4
71
3
72
8
73
4
74
0
42
0.000000001
43
0.0000000001
44
0.0000000001
40
0
40
0
40
0
40
0
40
0.28406956574605091
40
0.28406956574605091
40
0.28406956574605091
40
0.28406956574605091
41
1
41
1
41
1
41
1
10
-51.455736004369506
20
-12.819265608254522
30
0
10
-52.586217895464799
20
-12.800393016781658
30
0
10
-53.395564286672865
20
-12.786881554172995
30
0
10
-53.974999999992335
20
-12.690297608428429
30
0
0
SPLINE
5
229
100
AcDbEntity
8
0
100
AcDbSpline
70
4
71
3
72
8
73
4
74
0
42
0.000000001
43
0.0000000001
44
0.0000000001
40
0.70920430255199862
40
0.70920430255199862
40
0.70920430255199862
40
0.70920430255199862
40
1
40
1
40
1
40
1
41
1
41
1
41
1
41
1
10
-53.974999999949432
20
-5.16212312293497
30
0
10
-53.376219027234043
20
-5.0274178406718679
30
0
10
-52.531919337341094
20
-4.9689386085570666
30
0
10
-51.341430663125756
20
-4.8864810827011596
30
0
0
SPLINE
5
230
100
AcDbEntity
8
0
100
AcDbSpline
70
4
71
3
72
8
73
4
74
0
42
0.000000001
43
0.0000000001
44
0.0000000001
40
0
40
0
40
0
40
0
40
0.28181010689846669
40
0.28181010689846669
40
0.28181010689846669
40
0.28181010689846669
41
1
41
1
41
1
41
1
10
-51.397643922822724
20
-3.8908175351852847
30
0
10
-52.551346482682746
20
-3.9707271225002567
30
0
10
-53.379924000819585
20
-4.0281173804717838
30
0
10
-53.974999999996612
20
-3.96592696760223
30
0
0
SPLINE
5
231
100
AcDbEntity
8
0
100
AcDbSpline
70
4
71
3
72
8
73
4
74
0
42
0.000000001
43
0.0000000001
44
0.0000000001
40
0.68704062900196805
40
0.68704062900196805
40
0.68704062900196805
40
0.68704062900196805
40
1
40
1
40
1
40
1
41
1
41
1
41
1
41
1
10
-53.975000000594093
20
4.5137520273198408
30
0
10
-53.284186687338533
20
4.4681131719505736
30
0
10
-52.27869547751142
20
4.1955442367282041
30
0
10
-50.815184926049959
20
3.7988152461613467
30
0
0
SPLINE
5
232
100
AcDbEntity
8
0
100
AcDbSpline
70
4
71
3
72
8
73
4
74
0
42
0.000000001
43
0.0000000001
44
0.0000000001
40
0
40
0
40
0
40
0
40
0.33537069106853723
40
0.33537069106853723
40
0.33537069106853723
40
0.33537069106853723
41
1
41
1
41
1
41
1
10
-50.671563807186537
20
4.6714666801060645
30
0
10
-52.239877834493072
20
5.0966064903541222
30
0
10
-53.282225302649337
20
5.3791668686385403
30
0
10
-53.974999980076497
20
5.6539495091981085
30
0
0
SPLINE
5
233
100
AcDbEntity
8
0
100
AcDbSpline
70
4
71
3
72
8
73
4
74
0
42
0.000000001
43
0.0000000001
44
0.0000000001
40
0.69629923246542602
40
0.69629923246542602
40
0.69629923246542602
40
0.69629923246542602
40
1
40
1
40
1
40
1
41
1
41
1
41
1
41
1
10
-53.974999999561639
20
10.911034419423199
30
0
10
-53.376179919688205
20
11.160740596717547
30
0
10
-52.516175984665679
20
11.426589332340473
30
0
10
-51.281069158571022
20
11.808391757544392
30
0
0
SPLINE
5
234
100
AcDbEntity
8
0
100
AcDbSpline
70
4
71
3
72
8
73
4
74
0
42
0.000000001
43
0.0000000001
44
0.0000000001
40
0
40
0
40
0
40
0
40
0.27100634998647066
40
0.27100634998647066
40
0.27100634998647066
40
0.27100634998647066
41
1
41
1
41
1
41
1
10
-51.483687201198983
20
12.75682587200059
30
0
10
-52.58583065729961
20
12.416125225598247
30
0
10
-53.389286238200924
20
12.167756617815435
30
0
10
-53.975000254745922
20
12.091528225338205
30
0
0
SPLINE
5
235
100
AcDbEntity
8
0
100
AcDbSpline
70
4
71
3
72
8
73
4
74
0
42
0.000000001
43
0.0000000001
44
0.0000000001
40
0.73315517870147251
40
0.73315517870147251
40
0.73315517870147251
40
0.73315517870147251
40
1
40
1
40
1
40
1
41
1
41
1
41
1
41
1
10
-53.975000047051019
20
21.566414263333591
30
0
10
-53.401553654611078
20
21.532967745878551
30
0
10
-52.61939128421686
20
21.350848414182476
30
0
10
-51.552547056532951
20
21.102443523939947
30
0
0
SPLINE
5
236
100
AcDbEntity
8
0
100
AcDbSpline
70
4
71
3
72
8
73
4
74
0
42
0.000000001
43
0.0000000001
44
0.0000000001
40
0.38711801781936328
40
0.38711801781936328
40
0.38711801781936328
40
0.38711801781936328
40
1
40
1
40
1
40
1
41
1
41
1
41
1
41
1
10
-45.974998387983952
20
13.928576526413552
30
0
10
-46.356495286947272
20
14.511713953438681
30
0
10
-46.372833054426259
20
15.242177342993394
30
0
10
-46.415036637641052
20
17.129104212658142
30
0
0
SPLINE
5
237
100
AcDbEntity
8
0
100
AcDbSpline
70
4
71
3
72
8
73
4
74
0
42
0.000000001
43
0.0000000001
44
0.0000000001
40
0
40
0
40
0
40
0
40
0.15275131713722234
40
0.15275131713722234
40
0.15275131713722234
40
0.15275131713722234
41
1
41
1
41
1
41
1
10
-40.263148132023275
20
21.229088127351297
30
0
10
-39.783263658618928
20
20.977620709208619
30
0
10
-39.376682170600795
20
20.764565270404329
30
0
10
-39.032194136887938
20
20.574999999755235
30
0
0
SPLINE
5
238
100
AcDbEntity
8
0
100
AcDbSpline
70
4
71
3
72
8
73
4
74
0
42
0.000000001
43
0.0000000001
44
0.0000000001
40
0
40
0
40
0
40
0
40
0.10728988054612004
40
0.10728988054612004
40
0.10728988054612004
40
0.10728988054612004
41
1
41
1
41
1
41
1
10
-28.531568510390404
20
21.096537069217867
30
0
10
-28.233686818135688
20
20.903497567101994
30
0
10
-27.967764817059852
20
20.73116925010881
30
0
10
-27.730277907830391
20
20.574999999714173
30
0
0
SPLINE
5
239
100
AcDbEntity
8
0
100
AcDbSpline
70
4
71
3
72
8
73
4
74
0
42
0.000000001
43
0.0000000001
44
0.0000000001
40
0.84665815671589795
40
0.84665815671589795
40
0.84665815671589795
40
0.84665815671589795
40
1
40
1
40
1
40
1
41
1
41
1
41
1
41
1
10
-34.514991248903833
20
20.574999967478004
30
0
10
-34.261958176410204
20
20.766554468845541
30
0
10
-33.963082392352888
20
20.981983508794066
30
0
10
-33.610075949685843
20
21.236429814235862
30
0
0
SPLINE
5
240
100
AcDbEntity
8
0
100
AcDbSpline
70
4
71
3
72
8
73
4
74
0
42
0.000000001
43
0.0000000001
44
0.0000000001
40
0.36549593363360477
40
0.36549593363360477
40
0.36549593363360477
40
0.36549593363360477
40
1
40
1
40
1
40
1
41
1
41
1
41
1
41
1
10
-45.97500010000207
20
3.6657054860488056
30
0
10
-46.619911403810519
20
3.5731401111819832
30
0
10
-47.704398322779333
20
3.8671240659164945
30
0
10
-50.671563807186537
20
4.6714666801060645
30
0
0
SPLINE
5
241
100
AcDbEntity
8
0
100
AcDbSpline
70
4
71
3
72
8
73
4
74
0
42
0.000000001
43
0.0000000001
44
0.0000000001
40
0
40
0
40
0
40
0
40
0.91339180518817775
40
0.91339180518817775
40
0.91339180518817775
40
0.91339180518817775
41
1
41
1
41
1
41
1
10
-51.281069158571022
20
11.808391757544392
30
0
10
-47.56643760645148
20
12.956679162845967
30
0
10
-47.244720073331372
20
13.05613026214429
30
0
10
-45.97500000000619
20
12.070516444524326
30
0
0
SPLINE
5
242
100
AcDbEntity
8
0
100
AcDbSpline
70
4
71
3
72
8
73
4
74
0
42
0.000000001
43
0.0000000001
44
0.0000000001
40
0
40
0
40
0
40
0
40
0.1466746298938317
40
0.1466746298938317
40
0.1466746298938317
40
0.1466746298938317
41
1
41
1
41
1
41
1
10
-16.419874412871494
20
21.328919525679453
30
0
10
-16.010465890458125
20
21.038994855115423
30
0
10
-15.661107211545119
20
20.791594778303466
30
0
10
-15.363077699294639
20
20.574999999561122
30
0
0
SPLINE
5
243
100
AcDbEntity
8
0
100
AcDbSpline
70
4
71
3
72
8
73
4
74
0
42
0.000000001
43
0.0000000001
44
0.0000000001
40
0.85271398085353678
40
0.85271398085353678
40
0.85271398085353678
40
0.85271398085353678
40
1
40
1
40
1
40
1
41
1
41
1
41
1
41
1
10
-22.834026135086695
20
20.574999999876873
30
0
10
-22.553095611089127
20
20.792469901211412
30
0
10
-22.22335084538507
20
21.040433452310417
30
0
10
-21.836650529560536
20
21.331226797636837
30
0
0
SPLINE
5
244
100
AcDbEntity
8
0
100
AcDbSpline
70
4
71
3
72
8
73
4
74
0
42
0.000000001
43
0.0000000001
44
0.0000000001
40
0.87680134073030858
40
0.87680134073030858
40
0.87680134073030858
40
0.87680134073030858
40
1
40
1
40
1
40
1
41
1
41
1
41
1
41
1
10
-10.60335386433141
20
20.574999999412455
30
0
10
-10.363535880105001
20
20.75339727560705
30
0
10
-10.090080127633376
20
20.953155978201327
30
0
10
-9.7782013247977684
20
21.180982617275461
30
0
0
SPLINE
5
245
100
AcDbEntity
8
0
100
AcDbSpline
70
4
71
3
72
8
73
4
74
0
42
0.000000001
43
0.0000000001
44
0.0000000001
40
0
40
0
40
0
40
0
40
0.11570046136229598
40
0.11570046136229598
40
0.11570046136229598
40
0.11570046136229598
41
1
41
1
41
1
41
1
10
-4.429989336984459
20
21.156511000530465
30
0
10
-4.1040957723454294
20
20.939719119003968
30
0
10
-3.8159082434901381
20
20.748010158189686
30
0
10
-3.561365026118132
20
20.574999999986328
30
0
0
LWPOLYLINE
5
246
100
AcDbEntity
8
0
100
AcDbPolyline
90
2
70
1
43
0.0
10
6.5333192631804931
20
20.574999999953544
0
SPLINE
5
247
100
AcDbEntity
8
0
100
AcDbSpline
70
4
71
3
72
8
73
4
74
0
42
0.000000001
43
0.0000000001
44
0.0000000001
40
0
40
0
40
0
40
0
40
0.029877828845750465
40
0.029877828845750465
40
0.029877828845750465
40
0.029877828845750465
41
1
41
1
41
1
41
1
10
12.382667415283999
20
20.669710933900411
30
0
10
12.324937053076328
20
20.637163120205265
30
0
10
12.268931548749901
20
20.605587764517011
30
0
10
12.214521804308633
20
20.575000006751907
30
0
0
SPLINE
5
248
100
AcDbEntity
8
0
100
AcDbSpline
70
4
71
3
72
8
73
4
74
0
42
0.000000001
43
0.0000000001
44
0.0000000001
40
0.84235094772257879
40
0.84235094772257879
40
0.84235094772257879
40
0.84235094772257879
40
1
40
1
40
1
40
1
41
1
41
1
41
1
41
1
10
8.7198763905257
20
20.575000083873146
30
0
10
8.3870051615955461
20
20.756085905615542
30
0
10
8.0008233135785183
20
20.976129633299681
30
0
10
7.5423661241361284
20
21.237355347212699
30
0
0
SPLINE
5
249
100
AcDbEntity
8
0
100
AcDbSpline
70
4
71
3
72
8
73
4
74
0
42
0.000000001
43
0.0000000001
44
0.0000000001
40
0.80499381369764555
40
0.80499381369764555
40
0.80499381369764555
40
0.80499381369764555
40
1
40
1
40
1
40
1
41
1
41
1
41
1
41
1
10
21.259883810850091
20
20.574999999956518
30
0
10
21.605305542685418
20
20.837967480471594
30
0
10
22.043887657030613
20
21.137280472410946
30
0
10
22.588714346232877
20
21.509100711083953
30
0
0
SPLINE
5
250
100
AcDbEntity
8
0
100
AcDbSpline
70
4
71
3
72
8
73
4
74
0
42
0.000000001
43
0.0000000001
44
0.0000000001
40
0
40
0
40
0
40
0
40
0.35920254590803513
40
0.35920254590803513
40
0.35920254590803513
40
0.35920254590803513
41
1
41
1
41
1
41
1
10
27.484305382711547
20
21.857430143889331
30
0
10
28.23924017018517
20
21.297656251751363
30
0
10
28.723000460003725
20
20.938954566802206
30
0
10
29.017233532573805
20
20.574999999959775
30
0
0
SPLINE
5
251
100
AcDbEntity
8
0
100
AcDbSpline
70
4
71
3
72
8
73
4
74
0
42
0.000000001
43
0.0000000001
44
0.0000000001
40
0.75164346391575965
40
0.75164346391575965
40
0.75164346391575965
40
0.75164346391575965
40
1
40
1
40
1
40
1
41
1
41
1
41
1
41
1
10
31.804371109863915
20
20.574999999938356
30
0
10
32.192954194394105
20
20.770933147046563
30
0
10
32.703002290976727
20
20.972637171127101
30
0
10
33.381579463623808
20
21.240987837052856
30
0
0
SPLINE
5
252
100
AcDbEntity
8
0
100
AcDbSpline
70
4
71
3
72
8
73
4
74
0
42
0.000000001
43
0.0000000001
44
0.0000000001
40
0.96285176602047307
40
0.96285176602047307
40
0.96285176602047307
40
0.96285176602047307
40
1
40
1
40
1
40
1
41
1
41
1
41
1
41
1
10
42.971622234640904
20
20.574999999580051
30
0
10
43.08685683225869
20
20.600257724397441
30
0
10
43.206525261809318
20
20.626309922622465
30
0
10
43.330810674968205
20
20.653367252882866
30
0
0
SPLINE
5
253
100
AcDbEntity
8
0
100
AcDbSpline
70
4
71
3
72
8
73
4
74
0
42
0.000000001
43
0.0000000001
44
0.0000000001
40
0
40
0
40
0
40
0
40
0.20376783381611324
40
0.20376783381611324
40
0.20376783381611324
40
0.20376783381611324
41
1
41
1
41
1
41
1
10
37.53063176566647
20
21.172555927173811
30
0
10
37.819326377278728
20
20.938439388508165
30
0
10
38.049194313248371
20
20.752028269786933
30
0
10
38.23030173011756
20
20.574996867641318
30
0
0
SPLINE
5
254
100
AcDbEntity
8
0
100
AcDbSpline
70
4
71
3
72
8
73
4
74
0
42
0.000000001
43
0.0000000001
44
0.0000000001
40
0
40
0
40
0
40
0
40
0.77407430383781772
40
0.77407430383781772
40
0.77407430383781772
40
0.77407430383781772
41
1
41
1
41
1
41
1
10
47.76348584586664
20
16.112650994198106
30
0
10
47.319582828103471
20
13.261599765924315
30
0
10
47.219293729786841
20
12.617474032382514
30
0
10
45.974999921864082
20
12.180601380221338
30
0
0
SPLINE
5
255
100
AcDbEntity
8
0
100
AcDbSpline
70
4
71
3
72
8
73
4
74
0
42
0.000000001
43
0.0000000001
44
0.0000000001
40
0.17214321209245478
40
0.17214321209245478
40
0.17214321209245478
40
0.17214321209245478
40
1
40
1
40
1
40
1
41
1
41
1
41
1
41
1
10
45.975000000711894
20
10.950529081283246
30
0
10
47.51282813082247
20
11.27583648919882
30
0
10
47.765254604479182
20
11.095246617769089
30
0
10
49.231629436157988
20
10.046178988353986
30
0
0
SPLINE
5
256
100
AcDbEntity
8
0
100
AcDbSpline
70
4
71
3
72
8
73
4
74
0
42
0.000000001
43
0.0000000001
44
0.0000000001
40
0
40
0
40
0
40
0
40
0.50309853302196406
40
0.50309853302196406
40
0.50309853302196406
40
0.50309853302196406
41
1
41
1
41
1
41
1
10
48.449934578878526
20
2.4011998928950007
30
0
10
47.190229830727532
20
1.5852268440321695
30
0
10
46.564280693412101
20
1.179768639037688
30
0
10
45.974999999999881
20
1.1706666420958829
30
0
0
SPLINE
5
257
100
AcDbEntity
8
0
100
AcDbSpline
70
4
71
3
72
8
73
4
74
0
42
0.000000001
43
0.0000000001
44
0.0000000001
40
0.50272385465023406
40
0.50272385465023406
40
0.50272385465023406
40
0.50272385465023406
40
1
40
1
40
1
40
1
41
1
41
1
41
1
41
1
10
45.975000000004087
20
-5.2855229743009069
30
0
10
46.629862548084624
20
-5.2340990176279671
30
0
10
47.26084333901413
20
-5.6573961704272619
30
0
10
48.515967370016213
20
-6.4994034650558419
30
0
0
SPLINE
5
258
100
AcDbEntity
8
0
100
AcDbSpline
70
4
71
3
72
8
73
4
74
0
42
0.000000001
43
0.0000000001
44
0.0000000001
40
0
40
0
40
0
40
0
40
0.74034964639176393
40
0.74034964639176393
40
0.74034964639176393
40
0.74034964639176393
41
1
41
1
41
1
41
1
10
49.030123647990678
20
-14.45375886386973
30
0
10
47.745094033749481
20
-15.157663824753762
30
0
10
47.411435640014702
20
-15.340432996753893
30
0
10
45.975000000074964
20
-14.569589841508456
30
0
0
SPLINE
5
259
100
AcDbEntity
8
0
100
AcDbSpline
70
4
71
3
72
8
73
4
74
0
42
0.000000001
43
0.0000000001
44
0.0000000001
40
0.36488530494802907
40
0.36488530494802907
40
0.36488530494802907
40
0.36488530494802907
40
1
40
1
40
1
40
1
41
1
41
1
41
1
41
1
10
45.974999106098451
20
-15.825202626654807
30
0
10
46.775252640325903
20
-16.548153739964921
30
0
10
46.633033669130896
20
-17.113665200369859
30
0
10
46.243270175598923
20
-18.663498676084878
30
0
0
SPLINE
5
260
100
AcDbEntity
8
0
100
AcDbSpline
70
4
71
3
72
8
73
4
74
0
42
0.000000001
43
0.0000000001
44
0.0000000001
40
0.035583542334988498
40
0.035583542334988498
40
0.035583542334988498
40
0.035583542334988498
40
1
40
1
40
1
40
1
41
1
41
1
41
1
41
1
10
37.688941679888174
20
-20.575000089638394
30
0
10
39.310446419044666
20
-23.384285656593299
30
0
10
39.291560557230419
20
-23.425087259119156
30
0
10
38.760813459697232
20
-24.571729775531495
30
0
0
SPLINE
5
261
100
AcDbEntity
8
0
100
AcDbSpline
70
4
71
3
72
8
73
4
74
0
42
0.000000001
43
0.0000000001
44
0.0000000001
40
0
40
0
40
0
40
0
40
0.9258836906891188
40
0.9258836906891188
40
0.9258836906891188
40
0.9258836906891188
41
1
41
1
41
1
41
1
10
30.520134290996062
20
-24.947825197640459
30
0
10
28.902829937272742
20
-22.915128414384395
30
0
10
28.782961307542347
20
-22.764472430861357
30
0
10
29.781462628619199
20
-20.575000000189974
30
0
0
SPLINE
5
262
100
AcDbEntity
8
0
100
AcDbSpline
70
4
71
3
72
8
73
4
74
0
42
0.000000001
43
0.0000000001
44
0.0000000001
40
0.14306773511799606
40
0.14306773511799606
40
0.14306773511799606
40
0.14306773511799606
40
1
40
1
40
1
40
1
41
1
41
1
41
1
41
1
10
28.551045489687567
20
-20.574999915934605
30
0
10
27.706344145561587
20
-22.307804910266263
30
0
10
27.384580069455634
20
-22.348451086013586
30
0
10
25.135546939514946
20
-22.63255550490161
30
0
0
SPLINE
5
263
100
AcDbEntity
8
0
100
AcDbSpline
70
4
71
3
72
8
73
4
74
0
42
0.000000001
43
0.0000000001
44
0.0000000001
40
0
40
0
40
0
40
0
40
0.13991372918852249
40
0.13991372918852249
40
0.13991372918852249
40
0.13991372918852249
41
1
41
1
41
1
41
1
10
21.060537275615204
20
-21.217654788755773
30
0
10
20.857594540292411
20
-20.973304229531784
30
0
10
20.683046279880347
20
-20.763141668278131
30
0
10
20.534903308352437
20
-20.574999998958962
30
0
0
SPLINE
5
264
100
AcDbEntity
8
0
100
AcDbSpline
70
4
71
3
72
8
73
4
74
0
42
0.000000001
43
0.0000000001
44
0.0000000001
40
0.32915322014520965
40
0.32915322014520965
40
0.32915322014520965
40
0.32915322014520965
40
1
40
1
40
1
40
1
41
1
41
1
41
1
41
1
10
10.721046840655033
20
-20.575000000114585
30
0
10
11.054332204450368
20
-21.226125025709024
30
0
10
10.912344213449462
20
-21.821867500662037
30
0
10
10.480970669729404
20
-23.631791993243922
30
0
0
SPLINE
5
265
100
AcDbEntity
8
0
100
AcDbSpline
70
4
71
3
72
8
73
4
74
0
42
0.000000001
43
0.0000000001
44
0.0000000001
40
0
40
0
40
0
40
0
40
0.075512103271509368
40
0.075512103271509368
40
0.075512103271509368
40
0.075512103271509368
41
1
41
1
41
1
41
1
10
1.5416422853299938
20
-21.191376515491225
30
0
10
1.6265059045569783
20
-20.969617760178593
30
0
10
1.7049612934049005
20
-20.764604474898487
30
0
10
1.7787713810984322
20
-20.575000000260431
30
0
0
SPLINE
5
266
100
AcDbEntity
8
0
100
AcDbSpline
70
4
71
3
72
8
73
4
74
0
42
0.000000001
43
0.0000000001
44
0.0000000001
40
0.97167038243381576
40
0.97167038243381576
40
0.97167038243381576
40
0.97167038243381576
40
1
40
1
40
1
40
1
41
1
41
1
41
1
41
1
10
0.58239300834468288
20
-20.574999967189914
30
0
10
0.55236086054484668
20
-20.653586658182871
30
0
10
0.52142482490497299
20
-20.734426207807264
30
0
10
0.48958683107584555
20
-20.817622681720476
30
0
0
SPLINE
5
267
100
AcDbEntity
8
0
100
AcDbSpline
70
4
71
3
72
8
73
4
74
0
42
0.000000001
43
0.0000000001
44
0.0000000001
40
0
40
0
40
0
40
0
40
0.0027392627167643294
40
0.0027392627167643294
40
0.0027392627167643294
40
0.0027392627167643294
41
1
41
1
41
1
41
1
10
-7.5295942297151619
20
-20.605490927163181
30
0
10
-7.5339304674231879
20
-20.595299397232118
30
0
10
-7.538254827036929
20
-20.58513578457902
30
0
10
-7.5425673191932594
20
-20.574999988377343
30
0
0
SPLINE
5
268
100
AcDbEntity
8
0
100
AcDbSpline
70
4
71
3
72
8
73
4
74
0
42
0.000000001
43
0.0000000001
44
0.0000000001
40
0.96768046205821845
40
0.96768046205821845
40
0.96768046205821845
40
0.96768046205821845
40
1
40
1
40
1
40
1
41
1
41
1
41
1
41
1
10
-8.6080650191529156
20
-20.575000087683435
30
0
10
-8.5600802197447496
20
-20.687595470888244
30
0
10
-8.5105722173366019
20
-20.803955230008388
30
0
10
-8.4594106982718831
20
-20.924201286100761
30
0
0
SPLINE
5
269
100
AcDbEntity
8
0
100
AcDbSpline
70
4
71
3
72
8
73
4
74
0
42
0.000000001
43
0.0000000001
44
0.0000000001
40
0
40
0
40
0
40
0
40
0.81560059422016484
40
0.81560059422016484
40
0.81560059422016484
40
0.81560059422016484
41
1
41
1
41
1
41
1
10
-16.523687520679921
20
-24.35603719181163
30
0
10
-17.296695874497821
20
-22.211100355210309
30
0
10
-17.439238155604691
20
-21.815575277105744
30
0
10
-16.685643621102582
20
-20.575000129360042
30
0
0
SPLINE
5
270
100
AcDbEntity
8
0
100
AcDbSpline
70
4
71
3
72
8
73
4
74
0
42
0.000000001
43
0.0000000001
44
0.0000000001
40
0.37812315816091258
40
0.37812315816091258
40
0.37812315816091258
40
0.37812315816091258
40
1
40
1
40
1
40
1
41
1
41
1
41
1
41
1
10
-18.296228657210218
20
-20.57499791833132
30
0
10
-18.92605607866901
20
-21.069995225933184
30
0
10
-19.677453130897664
20
-21.010233539110814
30
0
10
-21.664628568348366
20
-20.852185333036797
30
0
0
SPLINE
5
271
100
AcDbEntity
8
0
100
AcDbSpline
70
4
71
3
72
8
73
4
74
0
42
0.000000001
43
0.0000000001
44
0.0000000001
40
0
40
0
40
0
40
0
40
0.32053495866559589
40
0.32053495866559589
40
0.32053495866559589
40
0.32053495866559589
41
1
41
1
41
1
41
1
10
-21.664628568348366
20
-20.852185333036797
30
0
10
-22.688880235396056
20
-20.770722297604756
30
0
10
-23.384823436683444
20
-20.715371012867703
30
0
10
-23.887755715876089
20
-20.574999996785756
30
0
0
SPLINE
5
272
100
AcDbEntity
8
0
100
AcDbSpline
70
4
71
3
72
8
73
4
74
0
42
0.000000001
43
0.0000000001
44
0.0000000001
40
0.45487402471712557
40
0.45487402471712557
40
0.45487402471712557
40
0.45487402471712557
40
1
40
1
40
1
40
1
41
1
41
1
41
1
41
1
10
-26.22492486214087
20
-20.575000055500151
30
0
10
-26.217881409834337
20
-21.272627431680654
30
0
10
-26.527490696233738
20
-21.695066905717884
30
0
10
-27.208139116622078
20
-22.623762436969503
30
0
0
SPLINE
5
273
100
AcDbEntity
8
0
100
AcDbSpline
70
4
71
3
72
8
73
4
74
0
42
0.000000001
43
0.0000000001
44
0.0000000001
40
0
40
0
40
0
40
0
40
0.028354882026683639
40
0.028354882026683639
40
0.028354882026683639
40
0.028354882026683639
41
1
41
1
41
1
41
1
10
-35.522144316690223
20
-20.824235650165317
30
0
10
-35.549905403719265
20
-20.738765688909837
30
0
10
-35.576879328400672
20
-20.655719218322574
30
0
10
-35.603070131974846
20
-20.574999981070036
30
0
0
SPLINE
5
274
100
AcDbEntity
8
0
100
AcDbSpline
70
4
71
3
72
8
73
4
74
0
42
0.000000001
43
0.0000000001
44
0.0000000001
40
0.92978429390544515
40
0.92978429390544515
40
0.92978429390544515
40
0.92978429390544515
40
1
40
1
40
1
40
1
41
1
41
1
41
1
41
1
10
-36.782871297761879
20
-20.57500000001458
30
0
10
-36.722265606841205
20
-20.757933599912754
30
0
10
-36.658347192663669
20
-20.954723196581398
30
0
10
-36.58960177010006
20
-21.166374004148878
30
0
0
SPLINE
5
275
100
AcDbEntity
8
0
100
AcDbSpline
70
4
71
3
72
8
73
4
74
0
42
0.000000001
43
0.0000000001
44
0.0000000001
40
0
40
0
40
0
40
0
40
0.9635695157978601
40
0.9635695157978601
40
0.9635695157978601
40
0.9635695157978601
41
1
41
1
41
1
41
1
10
-45.356419689513302
20
-24.57861323780163
30
0
10
-46.233665492439904
20
-22.437797331374071
30
0
10
-46.265623981804822
20
-22.359806371315273
30
0
10
-45.413406189315999
20
-20.575000141690865
30
0
0
SPLINE
5
276
100
AcDbEntity
8
0
100
AcDbSpline
70
4
71
3
72
8
73
4
74
0
42
0.000000001
43
0.0000000001
44
0.0000000001
40
0
40
0
40
0
40
0
40
0.18832218981272683
40
0.18832218981272683
40
0.18832218981272683
40
0.18832218981272683
41
1
41
1
41
1
41
1
10
-46.450476375278882
20
-15.859854400419646
30
0
10
-46.255435898887889
20
-16.232987542662837
30
0
10
-46.097125872112969
20
-16.535851434467084
30
0
10
-45.975000007632417
20
-16.794982512160775
30
0
0
SPLINE
5
277
100
AcDbEntity
8
0
100
AcDbSpline
70
4
71
3
72
8
73
4
74
0
42
0.000000001
43
0.0000000001
44
0.0000000001
40
0.83511109514820581
40
0.83511109514820581
40
0.83511109514820581
40
0.83511109514820581
40
1
40
1
40
1
40
1
41
1
41
1
41
1
41
1
10
-45.975000000047991
20
-18.992395574062549
30
0
10
-46.080048844640075
20
-19.230328384921588
30
0
10
-46.211398832868213
20
-19.504603608016083
30
0
10
-46.368683281597541
20
-19.83303323215587
30
0
0
LWPOLYLINE
5
278
100
AcDbEntity
8
0
100
AcDbPolyline
90
2
70
1
43
0.0
10
-45.974999991377395
20
-12.209865583303918
0
SPLINE
5
279
100
AcDbEntity
8
0
100
AcDbSpline
70
4
71
3
72
8
73
4
74
0
42
0.000000001
43
0.0000000001
44
0.0000000001
40
0
40
0
40
0
40
0
40
0.095124534295363966
40
0.095124534295363966
40
0.095124534295363966
40
0.095124534295363966
41
1
41
1
41
1
41
1
10
-46.23608579541947
20
-6.0347233337794393
30
0
10
-46.139872460493969
20
-6.1709223078274542
30
0
10
-46.052811374246261
20
-6.2941654178976458
30
0
10
-45.97500092470024
20
-6.4080173665813343
30
0
0
SPLINE
5
280
100
AcDbEntity
8
0
100
AcDbSpline
70
4
71
3
72
8
73
4
74
0
42
0.000000001
43
0.0000000001
44
0.0000000001
40
0.87271614003564013
40
0.87271614003564013
40
0.87271614003564013
40
0.87271614003564013
40
1
40
1
40
1
40
1
41
1
41
1
41
1
41
1
10
-45.975000643868896
20
-9.2646035401581255
30
0
10
-46.082049288347697
20
-9.5302335694093667
30
0
10
-46.207100713198969
20
-9.8312219890282133
30
0
10
-46.350390632010551
20
-10.176108952625054
30
0
0
LWPOLYLINE
5
281
100
AcDbEntity
8
0
100
AcDbPolyline
90
2
70
1
43
0.0
10
-45.974999970562749
20
-2.8415663100663653
0
LWPOLYLINE
5
282
100
AcDbEntity
8
0
100
AcDbPolyline
90
74
70
1
43
0.0
10
23.600539125120061
20
-13.890594734400707
10
23.596473937620065
20
-13.854735696900711
10
23.592542400120049
20
-13.787535734400713
10
23.588833612620043
20
-13.692878121900712
10
23.585440387620061
20
-13.574649846900716
10
23.582462962620031
20
-13.436730471900709
10
23.580001575120058
20
-13.283006984400718
10
23.578145325120062
20
-13.117358946900701
10
23.576994450120061
20
-12.943677059400713
10
23.573281950120059
20
-12.088369034400714
10
23.180933812620061
20
-12.088369034400714
10
22.78860052512006
20
-12.088369034400714
10
22.789020037620066
20
-14.450272671900702
10
22.789498950120056
20
-14.926170621900702
10
22.790683237620048
20
-15.372925446900695
10
22.791522262620056
20
-15.582258471900703
10
22.792506075120063
20
-15.780565371900702
10
22.793630962620046
20
-15.966598746900708
10
22.794885787620057
20
-16.139107484400697
10
22.796259412620053
20
-16.296851609400701
10
22.797744412620048
20
-16.438580009400688
10
22.799325937620061
20
-16.563048996900697
10
22.800996562620071
20
-16.669003746900707
10
22.802748862620057
20
-16.755204284400701
10
22.804567987620064
20
-16.820399496900702
10
22.806450225120074
20
-16.863345696900694
10
22.808380725120049
20
-16.882795484400702
10
22.827303337620044
20
-16.953418371900696
10
23.215560300120064
20
-16.953418371900696
10
23.603824687620065
20
-16.953418371900696
10
23.612096137620064
20
-15.909786359400703
10
23.620367587620038
20
-14.8661543469007
10
23.792995125120054
20
-15.909571034400699
10
23.965626375120056
20
-16.952991434400701
10
24.383624175120033
20
-16.953203046900711
10
24.801618262620035
20
-16.953418371900707
10
24.785235000120053
20
-16.898484509400703
10
24.78225386262006
20
-16.886225834400701
10
24.776785350120043
20
-16.8612481344007
10
24.768951975120039
20
-16.824227084400697
10
24.758902237620035
20
-16.775853209400694
10
24.746773500120046
20
-16.716809609400709
10
24.73270312512005
20
-16.647790521900706
10
24.716832187620032
20
-16.569471621900707
10
24.699294337620039
20
-16.48255085940071
10
24.659774775120038
20
-16.285625009400704
10
24.61525818762005
20
-16.062511184400719
10
24.566847187620048
20
-15.818692746900709
10
24.515644387620036
20
-15.559664196900709
10
24.262418475120036
20
-14.275766609400712
10
24.482825887620034
20
-13.226268846900719
10
24.527097450120039
20
-13.014544971900712
10
24.568402725120038
20
-12.815280246900711
10
24.605832150120026
20
-12.632963084400714
10
24.638483587620037
20
-12.47207447190072
10
24.665451187620047
20
-12.337106534400714
10
24.685836525120042
20
-12.232543971900721
10
24.693272662620053
20
-12.193065246900726
10
24.698726325120035
20
-12.162867771900723
10
24.702082425120029
20
-12.142515846900723
10
24.703225875120047
20
-12.132570059400729
10
24.703233300120043
20
-12.088369034400728
10
24.345634162620051
20
-12.088369034400728
10
23.988035025120045
20
-12.088369034400714
10
23.973589687620056
20
-12.127602734400721
10
23.967230175120051
20
-12.154013459400712
10
23.954615100120058
20
-12.214460384400718
10
23.936494387620058
20
-12.305067659400715
10
23.913629100120055
20
-12.421948296900716
10
23.886765450120055
20
-12.561215309400712
10
23.856664500120061
20
-12.71899284690071
10
23.824076175120055
20
-12.891390209400706
10
23.789754112620049
20
-13.074524121900721
10
23.620367587620038
20
-13.982211809400713
0
LWPOLYLINE
5
283
100
AcDbEntity
8
0
100
AcDbPolyline
90
44
70
1
43
0.0
10
26.021493787620045
20
-14.881847084400711
10
26.272592437620041
20
-14.881847084400711
10
26.272592437620045
20
-14.426727996900716
10
26.272592437620045
20
-13.971612621900709
10
26.021493787620045
20
-13.971612621900709
10
25.770395137620035
20
-13.971612621900709
10
25.769964487620037
20
-13.571427396900715
10
25.768308712620026
20
-13.410468246900722
10
25.764106162620042
20
-13.268045609400719
10
25.761251250120047
20
-13.20861590940072
10
25.757995387620038
20
-13.159610909400721
10
25.754423962620034
20
-13.122968534400714
10
25.750614937620053
20
-13.100615571900715
10
25.73169232512004
20
-13.029992684400717
10
26.017833262620044
20
-13.029992684400717
10
26.30398905012003
20
-13.029992684400717
10
26.30398905012003
20
-12.543488121900726
10
26.30398905012003
20
-12.056987271900725
10
25.93518558762003
20
-12.057143196900721
42
0.016421894000005596
10
25.260357037620054
20
-12.077573084400724
10
24.954320812620043
20
-12.097839621900723
10
24.954409912620044
20
-13.937112359400711
10
24.954851700120035
20
-14.318597721900709
10
24.956073112620039
20
-14.697707084400701
10
24.95798876262004
20
-15.06448723440071
10
24.960516975120044
20
-15.408977534400709
10
24.961987125120046
20
-15.569751059400712
10
24.963576075120034
20
-15.721221059400705
10
24.965276400120029
20
-15.862140134400713
10
24.96707696262003
20
-15.991264596900713
10
24.968966625120046
20
-16.107343334400696
10
24.970937962620035
20
-16.209143796900708
10
24.972976125120034
20
-16.295411159400707
10
24.975069975120043
20
-16.364901734400711
10
24.995640937620045
20
-16.953418371900707
10
25.701260962620029
20
-16.953418371900707
10
26.406895837620013
20
-16.953418371900707
10
26.387100787620032
20
-16.788631634400705
42
-0.029682957999967306
10
26.367027300120025
20
-16.302127071900706
10
26.366752575120035
20
-15.980405534400703
10
26.068579425120042
20
-15.980405534400703
10
25.770395137620035
20
-15.980405534400703
10
25.770395137620035
20
-15.43112630940071
10
25.770395137620035
20
-14.881847084400711
0
LWPOLYLINE
5
284
100
AcDbEntity
8
0
100
AcDbPolyline
90
46
70
1
43
0.0
10
22.266441112620058
20
-11.02119977190072
10
22.433358825120067
20
-11.02119977190072
10
22.600269112620058
20
-11.02119977190072
10
22.600269112620062
20
-9.9226450344007215
10
22.600269112620062
20
-8.8240828719007229
10
22.469908387620059
20
-8.8240828719007229
10
22.33955137512006
20
-8.8240828719007229
10
22.357256287620064
20
-9.7500100719007143
10
22.360397062620066
20
-9.9360026094007203
10
22.36250576262006
20
-10.109502584400715
10
22.363593525120056
20
-10.266712109400729
10
22.363678912620063
20
-10.403837009400718
10
22.362773062620072
20
-10.517083109400719
10
22.360887112620063
20
-10.602648809400719
10
22.358035912620068
20
-10.656743646900718
10
22.354230600120061
20
-10.675566021900714
10
22.349835000120066
20
-10.670732346900724
10
22.341092062620078
20
-10.656624846900719
10
22.328235675120062
20
-10.633715009400721
10
22.311499725120065
20
-10.602481746900718
10
22.26733582512006
20
-10.516930896900709
10
22.210493737620066
20
-10.403762759400717
10
22.142855700120059
20
-10.266775221900728
10
22.066311375120069
20
-10.10975503440072
10
21.982750425120056
20
-9.9365000844007216
10
21.894055087620046
20
-9.7508008344007226
10
21.454636162620069
20
-8.8264031844007214
10
21.289845712620053
20
-8.8252411719007302
10
21.125066400120058
20
-8.8240828719007229
10
21.125066400120058
20
-9.9226450344007215
10
21.125066400120058
20
-11.02119977190072
10
21.234919275120056
20
-11.02119977190072
10
21.34477215012005
20
-11.02119977190072
10
21.34477215012005
20
-10.088998446900712
10
21.34477215012005
20
-9.156785984400738
10
21.373584862620056
20
-9.1866084969007318
10
21.378763800120065
20
-9.1943267844007224
10
21.388193550120054
20
-9.2110144719007323
10
21.401636512620065
20
-9.2361963594007257
10
21.418862512620073
20
-9.2693898219007256
10
21.463709512620063
20
-9.3579069594007258
10
21.520841175120058
20
-9.4727420094007222
10
21.588367837620055
20
-9.6100748094007269
10
21.664399837620056
20
-9.7660814844007255
10
21.747047512620057
20
-9.9369344469007146
10
21.834421200120069
20
-10.118813534400717
0
LWPOLYLINE
5
285
100
AcDbEntity
8
0
100
AcDbPolyline
90
24
70
1
43
0.0
10
23.165244787620054
20
-9.9226450344007215
10
23.165244787620054
20
-11.02119977190072
10
23.792995125120054
20
-11.02119977190072
10
24.42073803762004
20
-11.021199771900728
10
24.42073803762004
20
-10.891470171900728
10
24.42073803762004
20
-10.761733146900728
10
23.910699937620059
20
-10.773765359400716
10
23.40065070012006
20
-10.785793859400712
10
23.391892912620062
20
-10.369908471900718
10
23.383135125120063
20
-9.9540267969007221
10
23.854856512620056
20
-9.9540267969007221
10
24.326577900120032
20
-9.9540267969007257
10
24.326577900120032
20
-9.8441739219007225
10
24.326577900120032
20
-9.7343173344007283
10
23.855762362620041
20
-9.7343173344007123
10
23.384957962620057
20
-9.7343173344007123
10
23.384957962620057
20
-9.3890585469007206
10
23.384957962620057
20
-9.0437960469007308
10
23.887158975120055
20
-9.0437960469007308
10
24.389356275120029
20
-9.0437960469007415
10
24.389356275120029
20
-8.9339394594007224
10
24.389356275120029
20
-8.8240828719007265
10
23.777294962620044
20
-8.8240828719007229
10
23.165244787620054
20
-8.8240828719007229
0
LWPOLYLINE
5
286
100
AcDbEntity
8
0
100
AcDbPolyline
90
84
70
1
43
0.0
10
21.32144280012006
20
-13.352330496900716
10
21.32254541262007
20
-13.27470954690072
10
21.323922750120062
20
-13.208029334400704
10
21.325578525120047
20
-13.153121459400705
10
21.327512737620062
20
-13.110806384400709
10
21.329721675120062
20
-13.081911996900708
10
21.352475587620052
20
-12.869456759400704
10
21.422675250120065
20
-12.823466309400713
10
21.481043175120057
20
-12.797515934400714
10
21.53507861262004
20
-12.796803134400694
10
21.581039362620061
20
-12.820462896900708
10
21.615179512620063
20
-12.867633921900714
10
21.620287912620061
20
-12.891152609400711
10
21.625541100120067
20
-12.938171421900709
10
21.630794287620063
20
-13.00586885940071
10
21.635895262620053
20
-13.091419709400711
10
21.640695525120055
20
-13.192006184400713
10
21.645042862620066
20
-13.304799359400707
10
21.64878877512006
20
-13.426981446900699
10
21.651784762620061
20
-13.555730946900702
10
21.664236487620055
20
-14.191329509400695
10
22.053781687620067
20
-14.191329509400695
10
22.443330600120063
20
-14.191329509400695
10
22.443330600120063
20
-13.691396834400704
10
22.440754125120066
20
-13.477913234400711
10
22.433726362620057
20
-13.266204209400705
10
22.42888155012006
20
-13.168658271900702
10
22.423327650120051
20
-13.08072770940071
10
22.417202025120059
20
-13.005471621900714
10
22.410630900120054
20
-12.945949109400704
10
22.37792377512006
20
-12.700426634400708
10
22.283763637620062
20
-12.505572359400725
10
22.189603500120064
20
-12.310718084400719
10
22.061711587620056
20
-12.201247596900711
42
0.35360935000000154
10
20.95366027512004
20
-12.168031859400712
10
20.853445050120047
20
-12.264634821900714
10
20.757213337620048
20
-12.395025246900717
10
20.671536262620055
20
-12.548941784400718
10
20.602973812620064
20
-12.71611937190071
10
20.544401700120062
20
-12.888746909400711
10
20.544401700120062
20
-14.411038971900698
10
20.544401700120062
20
-15.933323609400706
10
20.584860525120053
20
-16.166992071900694
10
20.605153050120055
20
-16.26806488440069
10
20.630483437620075
20
-16.370533596900692
10
20.657621812620061
20
-16.462432821900688
10
20.683338300120067
20
-16.531786034400696
10
20.759945737620061
20
-16.666579484400707
10
20.863595025120052
20
-16.795013421900695
10
20.982595500120055
20
-16.904587859400703
10
21.105256500120056
20
-16.982810234400702
10
21.241085737620047
20
-17.029097684400707
10
21.406592700120058
20
-17.058270509400696
10
21.491026087620043
20
-17.065361384400695
10
21.571546500120064
20
-17.066872371900697
10
21.644374612620069
20
-17.062380246900695
10
21.705731100120069
20
-17.051450646900697
10
21.823142625120056
20
-17.0111625969007
10
21.929969812620062
20
-16.953006284400701
10
22.033088212620061
20
-16.872426471900695
10
22.139384512620065
20
-16.764879059400702
10
22.283024850120064
20
-16.605115334400693
10
22.349055375120066
20
-16.428626796900701
10
22.415097037620058
20
-16.252127121900706
10
22.443987712620057
20
-15.85732502190071
42
0.017187996000017792
10
22.473806512620065
20
-15.25065054690069
10
22.474723500120071
20
-15.038785596900698
10
22.066686337620052
20
-15.038785596900698
10
21.658649175120065
20
-15.038785596900698
10
21.658649175120065
20
-15.570894509400697
10
21.658649175120065
20
-16.103003421900695
10
21.622225837620061
20
-16.182944684400702
10
21.585798787620057
20
-16.262893371900702
10
21.500485537620058
20
-16.262893371900702
10
21.415164862620063
20
-16.262893371900702
10
21.382045650120062
20
-16.176577746900698
10
21.348930150120047
20
-16.090262121900707
10
21.327947100120056
20
-14.692312821900696
10
21.324201187620069
20
-14.407159409400709
10
21.321598725120062
20
-14.132749971900706
10
21.320139712620048
20
-13.875696471900703
10
21.319816725120063
20
-13.642603446900702
10
21.320076600120068
20
-13.537105334400712
10
21.320618625120066
20
-13.440071721900711
0
LINE
5
287
100
AcDbEntity
8
0
100
AcDbLine
10
24.793870275120042
20
-10.646448884400728
30
0
11
24.803478225120053
21
-10.778899746900725
31
0
0
LINE
5
288
100
AcDbEntity
8
0
100
AcDbLine
10
25.28382003762005
20
-9.9572529594007246
30
0
11
25.393758300120048
21
-9.9872833719007392
31
0
0
LINE
5
289
100
AcDbEntity
8
0
100
AcDbLine
10
25.903729575120042
20
-10.914435696900719
30
0
11
25.989506887620053
21
-10.846203659400722
31
0
0
LINE
5
290
100
AcDbEntity
8
0
100
AcDbLine
10
25.989506887620053
20
-10.846203659400722
30
0
11
26.063946225120045
21
-10.761614346900725
31
0
0
LINE
5
291
100
AcDbEntity
8
0
100
AcDbLine
10
25.737461550120038
20
-10.10412317190073
30
0
11
25.802556525120028
21
-10.149902009400725
31
0
0
LINE
5
292
100
AcDbEntity
8
0
100
AcDbLine
10
26.145023512620035
20
-10.341738021900719
30
0
11
26.139139200120034
21
-10.271902184400739
31
0
0
LINE
5
293
100
AcDbEntity
8
0
100
AcDbLine
10
26.015642887620043
20
-9.9992376219007291
30
0
11
25.930110600120049
21
-9.9113330469007259
31
0
0
LINE
5
294
100
AcDbEntity
8
0
100
AcDbLine
10
25.603328925120039
20
-10.804256121900726
30
0
11
25.472221987620046
21
-10.839599121900726
31
0
0
LINE
5
295
100
AcDbEntity
8
0
100
AcDbLine
10
25.393758300120048
20
-9.9872833719007392
30
0
11
25.536076987620042
21
-10.025529546900728
31
0
0
LINE
5
296
100
AcDbEntity
8
0
100
AcDbLine
10
25.472221987620046
20
-10.839599121900726
30
0
11
25.307806500120055
21
-10.820316396900729
31
0
0
LINE
5
297
100
AcDbEntity
8
0
100
AcDbLine
10
24.813086175120034
20
-10.911343184400724
30
0
11
24.975110812620049
21
-10.965115034400725
31
0
0
ARC
5
298
100
AcDbEntity
8
0
100
AcDbCircle
10
25.458140769554909
20
-9.6485164091911191
30
0
40
1.1814040814906455
210
0
220
0
230
1
100
AcDbArc
50
245.52235309633261
51
262.6892615845457
0
LINE
5
299
100
AcDbEntity
8
0
100
AcDbLine
10
24.803478225120053
20
-10.778899746900725
30
0
11
24.813086175120034
21
-10.911343184400724
31
0
0
LINE
5
300
100
AcDbEntity
8
0
100
AcDbLine
10
25.187321025120035
20
-9.9250544469007274
30
0
11
25.28382003762005
21
-9.9572529594007246
31
0
0
LINE
5
301
100
AcDbEntity
8
0
100
AcDbLine
10
25.10352990012003
20
-9.8902534719007207
30
0
11
25.187321025120035
21
-9.9250544469007274
31
0
0
LINE
5
302
100
AcDbEntity
8
0
100
AcDbLine
10
24.968639925120044
20
-10.723739421900721
30
0
11
24.793870275120042
21
-10.646448884400728
31
0
0
ARC
5
303
100
AcDbEntity
8
0
100
AcDbCircle
10
25.450183655593076
20
-9.4877518833675563
30
0
40
1.5518685788948514
210
0
220
0
230
1
100
AcDbArc
50
252.17386624091898
51
265.7827758781221
0
LWPOLYLINE
5
304
100
AcDbEntity
8
0
100
AcDbPolyline
90
8
70
1
43
0.0
10
16.322791725120073
20
-19.119149796900683
10
30.07227307512003
20
-19.119149796900693
10
43.821750712620002
20
-19.119149796900693
10
43.812098212619986
20
-18.985748534400692
10
43.802453137620006
20
-18.852350984400697
10
30.062620575120029
20
-18.844473059400698
10
16.322791725120073
20
-18.836587709400689
10
16.322791725120073
20
-18.977866896900689
0
LINE
5
305
100
AcDbEntity
8
0
100
AcDbLine
10
25.649642362620042
20
-10.063567821900715
30
0
11
25.737461550120038
21
-10.10412317190073
31
0
0
LINE
5
306
100
AcDbEntity
8
0
100
AcDbLine
10
26.14530566262005
20
-10.419403521900726
30
0
11
26.145023512620035
21
-10.341738021900719
31
0
0
LINE
5
307
100
AcDbEntity
8
0
100
AcDbLine
10
25.802556525120028
20
-10.149902009400725
30
0
11
25.847938125120038
21
-10.203625596900725
31
0
0
LINE
5
308
100
AcDbEntity
8
0
100
AcDbLine
10
25.803744525120038
20
-10.968200121900722
30
0
11
25.903729575120042
21
-10.914435696900719
31
0
0
LINE
5
309
100
AcDbEntity
8
0
100
AcDbLine
10
26.140275225120035
20
-10.506064409400718
30
0
11
26.14530566262005
21
-10.419403521900726
31
0
0
LWPOLYLINE
5
310
100
AcDbEntity
8
0
100
AcDbPolyline
90
8
70
1
43
0.0
10
30.070468800120025
20
-17.8636528344007
10
16.322791725120073
20
-17.863652834400693
10
16.322791725120073
20
-18.208911621900693
10
16.322791725120073
20
-18.554174121900701
10
30.070468800120025
20
-18.554174121900708
10
43.818142162619999
20
-18.554174121900708
10
43.818142162619999
20
-18.208911621900704
10
43.818142162619999
20
-17.8636528344007
0
LINE
5
311
100
AcDbEntity
8
0
100
AcDbLine
10
25.89594817512004
20
-10.43960323440073
30
0
11
25.89594817512004
21
-10.57695830940073
31
0
0
LINE
5
312
100
AcDbEntity
8
0
100
AcDbLine
10
25.686670837620028
20
-11.00938288440072
30
0
11
25.803744525120038
21
-10.968200121900722
31
0
0
LINE
5
313
100
AcDbEntity
8
0
100
AcDbLine
10
26.085007237620033
20
-10.097678271900726
30
0
11
26.015642887620043
21
-9.9992376219007291
31
0
0
LINE
5
314
100
AcDbEntity
8
0
100
AcDbLine
10
26.063946225120045
20
-10.761614346900725
30
0
11
26.125974675120034
21
-10.67853973440072
31
0
0
LINE
5
315
100
AcDbEntity
8
0
100
AcDbLine
10
25.876617187620056
20
-10.268004059400727
30
0
11
25.891615687620039
21
-10.34575865940073
31
0
0
LINE
5
316
100
AcDbEntity
8
0
100
AcDbLine
10
26.42097735012004
20
-8.9712315219007355
30
0
11
26.457382125120045
21
-9.0775612344007399
31
0
0
LINE
5
317
100
AcDbEntity
8
0
100
AcDbLine
10
25.847938125120038
20
-10.203625596900725
30
0
11
25.876617187620056
21
-10.268004059400727
31
0
0
LINE
5
318
100
AcDbEntity
8
0
100
AcDbLine
10
25.815193875120038
20
-10.67293757190072
30
0
11
25.734424725120057
21
-10.768913121900725
31
0
0
LINE
5
319
100
AcDbEntity
8
0
100
AcDbLine
10
25.89594817512004
20
-10.57695830940073
30
0
11
25.815193875120038
21
-10.67293757190072
31
0
0
LINE
5
320
100
AcDbEntity
8
0
100
AcDbLine
10
26.125974675120034
20
-10.67853973440072
30
0
11
26.140275225120035
21
-10.506064409400718
31
0
0
LINE
5
321
100
AcDbEntity
8
0
100
AcDbLine
10
26.139139200120034
20
-10.271902184400739
30
0
11
26.127366862620036
21
-10.208726571900719
31
0
0
LINE
5
322
100
AcDbEntity
8
0
100
AcDbLine
10
26.127366862620036
20
-10.208726571900719
30
0
11
26.085007237620033
21
-10.097678271900726
31
0
0
LINE
5
323
100
AcDbEntity
8
0
100
AcDbLine
10
25.891615687620039
20
-10.34575865940073
30
0
11
25.89594817512004
21
-10.43960323440073
31
0
0
LWPOLYLINE
5
324
100
AcDbEntity
8
0
100
AcDbPolyline
90
44
70
1
43
0.0
10
38.482284712619979
20
-11.985387996900725
10
37.799611650119999
20
-12.008279271900722
10
37.662419925119998
20
-12.012979296900729
10
37.534323825119998
20
-12.017564234400728
10
37.418133712619984
20
-12.02192270940073
10
37.316663662620002
20
-12.025932209400727
10
37.232720325120006
20
-12.029481359400734
10
37.169117775119993
20
-12.032458784400728
10
37.128666375119998
20
-12.034745684400718
10
37.11417648762
20
-12.036230684400735
10
37.113972300119997
20
-12.049324671900731
10
37.113920325120006
20
-12.08673553440072
10
37.114016850120009
20
-12.147212159400731
10
37.114254450120001
20
-12.229514571900726
10
37.114629412619998
20
-12.332399084400727
10
37.115130600119997
20
-12.454610871900726
10
37.115758012620006
20
-12.594909959400717
10
37.116504225120003
20
-12.752052659400722
10
37.117361812620004
20
-12.924787859400716
10
37.118323350120008
20
-13.111871871900714
10
37.119385125120019
20
-13.312061009400708
10
37.12053971261998
20
-13.524111584400716
10
37.123108762619992
20
-13.978796309400714
10
37.125974812620008
20
-14.46596540940071
10
37.140531525119997
20
-16.89063999690071
10
37.842799162620004
20
-16.89063999690071
10
38.545063087619987
20
-16.89063999690071
10
38.545063087619987
20
-16.404131721900715
10
38.545063087619987
20
-15.917630871900712
10
38.231186062620004
20
-15.917630871900712
10
37.917316462619993
20
-15.917630871900712
10
37.917316462619993
20
-15.368355359400709
10
37.917316462619993
20
-14.81907613440071
10
38.184107850119993
20
-14.81907613440071
10
38.450902950119996
20
-14.81907613440071
10
38.450902950119996
20
-14.363957046900717
10
38.450902950119996
20
-13.90884167190071
10
38.184107850119993
20
-13.90884167190071
10
37.917316462619993
20
-13.90884167190071
10
37.917316462619993
20
-13.438029846900715
10
37.917316462619993
20
-12.967214309400717
10
38.199804300119993
20
-12.967214309400717
10
38.482284712619979
20
-12.967214309400717
10
38.482284712619979
20
-12.476303009400718
0
LINE
5
325
100
AcDbEntity
8
0
100
AcDbLine
10
25.169181750120053
20
-9.62591233440072
30
0
11
25.121728575120052
21
-9.5919095469007374
31
0
0
LINE
5
326
100
AcDbEntity
8
0
100
AcDbLine
10
25.734424725120057
20
-10.768913121900725
30
0
11
25.603328925120039
21
-10.804256121900726
31
0
0
LINE
5
327
100
AcDbEntity
8
0
100
AcDbLine
10
26.483258250120052
20
-8.7926973969007278
30
0
11
26.362527750120034
21
-8.7926973969007278
31
0
0
LWPOLYLINE
5
328
100
AcDbEntity
8
0
100
AcDbPolyline
90
32
70
1
43
0.0
10
16.260013350120076
20
-14.552277321900695
10
16.260013350120076
20
-16.9848001344007
10
16.668061650120066
20
-16.9848001344007
10
17.076087675120071
20
-16.9848001344007
10
17.076087675120071
20
-15.964712796900695
10
17.076087675120071
20
-14.944625459400701
10
17.197271100120069
20
-14.944625459400701
10
17.318450812620078
20
-14.944625459400701
10
17.338234725120078
20
-15.109408484400703
10
17.34222195012007
20
-15.159965309400709
10
17.345945587620061
20
-15.240879246900707
10
17.349331387620069
20
-15.347962596900695
10
17.352297675120077
20
-15.477031371900702
10
17.354762775120065
20
-15.623905296900706
10
17.356637587620064
20
-15.784396671900705
10
17.357847862620069
20
-15.9543215094007
10
17.358304500120077
20
-16.129495821900694
10
17.358582937620074
20
-16.9848001344007
10
17.750916225120072
20
-16.9848001344007
10
18.143260650120062
20
-16.9848001344007
10
18.143260650120062
20
-14.552277321900695
10
18.143260650120062
20
-12.119758221900717
10
17.735223487620072
20
-12.119758221900717
10
17.32718632512006
20
-12.119758221900717
10
17.32718632512006
20
-12.998603496900712
10
17.32718632512006
20
-13.877452484400711
10
17.185940550120069
20
-13.877452484400711
10
17.044705912620074
20
-13.877452484400711
10
17.044705912620074
20
-12.998603496900712
10
17.044705912620078
20
-12.119758221900716
10
16.652361487620073
20
-12.119758221900716
10
16.260013350120076
20
-12.119758221900716
0
LINE
5
329
100
AcDbEntity
8
0
100
AcDbLine
10
18.524051775120057
20
-14.530908171900702
30
0
11
18.330838425120067
21
-16.961262884400696
31
0
0
LINE
5
330
100
AcDbEntity
8
0
100
AcDbLine
10
20.312986725120062
20
-16.240729746900694
30
0
11
20.29629903762007
21
-16.077376034400697
31
0
0
LINE
5
331
100
AcDbEntity
8
0
100
AcDbLine
10
25.305066675120038
20
-9.6874618719007355
30
0
11
25.229784600120048
21
-9.6574537344007272
31
0
0
LINE
5
332
100
AcDbEntity
8
0
100
AcDbLine
10
25.536076987620042
20
-10.025529546900728
30
0
11
25.649642362620042
21
-10.063567821900715
31
0
0
LINE
5
333
100
AcDbEntity
8
0
100
AcDbLine
10
25.283422800120036
20
-8.7927939219007261
30
0
11
25.107487425120034
21
-8.8293137844007177
31
0
0
LINE
5
334
100
AcDbEntity
8
0
100
AcDbLine
10
24.797393437620052
20
-9.5521969344007385
30
0
11
24.84937215012004
21
-9.6617490969007243
31
0
0
LINE
5
335
100
AcDbEntity
8
0
100
AcDbLine
10
25.229784600120048
20
-9.6574537344007272
30
0
11
25.169181750120053
21
-9.62591233440072
31
0
0
LWPOLYLINE
5
336
100
AcDbEntity
8
0
100
AcDbPolyline
90
22
70
1
43
0.0
10
31.388740425120034
20
-10.958421396900722
10
31.985097862620016
20
-10.958421396900722
10
31.985097862620016
20
-10.848572234400727
10
31.985097862620016
20
-10.73871193440073
10
31.498597012620031
20
-10.73871193440073
10
31.012092450120036
20
-10.73871193440073
10
31.012092450120036
20
-9.7657065219007304
10
31.012092450120036
20
-8.7926973969007278
10
30.88287888762002
20
-8.7926973969007278
10
30.753669037620032
20
-8.7926973969007278
10
30.772595362620034
20
-8.8633165719007234
10
30.774525862620024
20
-8.87576458440072
10
30.776408100120026
20
-8.8981620969007231
10
30.77822722512003
20
-8.9299633719007261
10
30.779979525120027
20
-8.9706115344007227
10
30.783231675120017
20
-9.076217309400727
10
30.786086587620012
20
-9.2105392719007195
10
30.788466300120021
20
-9.3691409844007207
10
30.790289137620039
20
-9.547574871900725
10
30.791477137620021
20
-9.7414007844007262
10
30.79195233762001
20
-9.946182284400729
10
30.792375562620045
20
-10.958421396900722
0
LWPOLYLINE
5
337
100
AcDbEntity
8
0
100
AcDbPolyline
90
82
70
1
43
0.0
10
38.818128600120005
20
-11.981423046900726
10
38.853430762619993
20
-12.099614196900719
10
38.893626000119994
20
-12.221666346900728
10
38.93639028762
20
-12.340191621900731
10
38.979399600119997
20
-12.447798434400724
10
39.020333625120003
20
-12.537102621900736
10
39.101644800119999
20
-12.689122071900725
10
39.188120062620001
20
-12.832235234400722
10
39.280219762619993
20
-12.967006409400717
10
39.378407962620003
20
-13.093996184400719
10
39.48314501262
20
-13.21377257190071
10
39.594894975119992
20
-13.326892446900715
10
39.714118200120005
20
-13.433927534400727
10
39.841282462620001
20
-13.535430996900729
42
0.08961849800000285
10
40.795903575120001
20
-14.021586584400708
10
41.071746037620009
20
-14.103376671900705
10
41.440538362619996
20
-14.120268546900707
10
41.809326975119994
20
-14.137167846900716
10
42.047045775119976
20
-14.098821434400719
42
0.077104852000009258
10
42.900063187619992
20
-13.81870588440071
10
43.096235400119994
20
-13.71961183440072
10
43.096506412619995
20
-14.606758259400705
10
43.096966762619992
20
-14.788329209400711
10
43.098173325119987
20
-14.964220034400711
10
43.100051850119996
20
-15.130120521900706
10
43.102513237619974
20
-15.281709321900712
10
43.105479525119975
20
-15.41467250940071
10
43.108865325119972
20
-15.524703584400712
10
43.112588962620002
20
-15.607477484400718
10
43.116572475119987
20
-15.658687709400706
10
43.136363812619997
20
-15.823470734400711
10
43.202613375120002
20
-15.818447721900711
42
0.011846019728481757
10
43.370871300119973
20
-15.800761371900718
10
43.472883375120006
20
-15.788105459400715
10
43.468829325119991
20
-15.107422296900715
42
0.0089467779999986806
10
43.445292075119966
20
-13.960089021900712
10
43.425801450119977
20
-13.493450046900715
10
43.646245987619977
20
-13.269571446900718
42
0.19690254999998658
10
44.445892500119974
20
-11.307058559400883
10
44.440320037619998
20
-11.120516571900723
10
44.423391037619993
20
-10.939387409400725
10
44.394797362619983
20
-10.762516484400733
10
44.354227162619978
20
-10.588752921900735
10
44.301364875119987
20
-10.416942134400722
10
44.235898650119978
20
-10.24592210940073
10
44.157516637619963
20
-10.074545684400743
10
44.065906987619982
20
-9.9016471344007293
10
43.928002462619993
20
-9.657557684400734
10
43.654079362619996
20
-9.3746911719007269
10
43.38015997511998
20
-9.0918246594007339
10
43.358720287619988
20
-7.9849464969007391
10
43.337280600119996
20
-6.8780646219007462
10
43.169672362619977
20
-6.8780646219007462
10
43.002067837619968
20
-6.8780646219007462
10
43.002067837619968
20
-7.8672973719007384
10
43.002067837619968
20
-8.8565301219007431
10
42.852981262619984
20
-8.7811886469007234
10
42.646068787619981
20
-8.6924079219007293
10
42.403739062619977
20
-8.6142709344007411
10
42.146035875120006
20
-8.5523872719007432
10
41.892999300119975
20
-8.5123739469007305
10
41.588139937619999
20
-8.4783785844007227
10
41.314250250119997
20
-8.5096044219007361
10
41.057337825120001
20
-8.5485782469007372
10
40.811915587619978
20
-8.6057061969007318
10
40.57763827511998
20
-8.6811367719007286
10
40.354179187619998
20
-8.7750370344007376
10
40.141189350120001
20
-8.8875666219007261
10
39.938338350119992
20
-9.0188814594007276
10
39.745284637619996
20
-9.1691448969007201
10
39.561690375119994
20
-9.3385128594007405
42
0.17678027000000379
10
38.743681837620002
20
-11.076126209400725
10
38.724172650119996
20
-11.303687609400733
10
38.509070400119995
20
-11.303687609400733
10
38.293964437620012
20
-11.303687609400733
10
38.293964437620012
20
-11.476318859400729
10
38.293964437620012
20
-11.64895010940073
10
38.52937035011999
20
-11.64895010940073
10
38.764772550119993
20
-11.64895010940073
10
38.764772550119993
20
-11.723905484400724
10
38.771477325119996
20
-11.786178959400722
10
38.790036112619994
20
-11.874480771900725
0
LWPOLYLINE
5
338
100
AcDbEntity
8
0
100
AcDbPolyline
90
46
70
1
43
0.0
10
32.000798025120012
20
-12.04653287190073
10
31.454399700120021
20
-12.051492771900719
10
31.344498562620032
20
-12.052651071900719
10
31.241695725120042
20
-12.054054396900717
10
31.148259525120015
20
-12.055643346900728
10
31.06646201262004
20
-12.057373371900724
10
30.998567812620024
20
-12.059181359400725
10
30.946852687620037
20
-12.061015334400729
10
30.913584975120038
20
-12.062827034400719
10
30.901029300120015
20
-12.06456077190072
10
30.900405600120017
20
-12.077966609400725
10
30.899963812620026
20
-12.115678184400732
10
30.899703937620025
20
-12.176451809400728
10
30.899622262620028
20
-12.259032659400724
10
30.899707650120014
20
-12.362180759400719
10
30.89996010012004
20
-12.484648709400723
10
30.900372187620032
20
-12.625181684400726
10
30.900940200120029
20
-12.782539709400723
10
30.901660425120024
20
-12.955475384400707
10
30.902529150120024
20
-13.142737596900712
10
30.903535237620019
20
-13.343078946900707
10
30.90467868762002
20
-13.555255746900716
10
30.907359112620043
20
-14.010122384400709
10
30.910525875120033
20
-14.497350884400706
10
30.926994525120026
20
-16.922029184400703
10
31.330862550120013
20
-16.922029184400703
10
31.734730575120022
20
-16.922029184400703
10
31.713725250120028
20
-15.938149859400713
10
31.69271621262002
20
-14.954270534400717
10
31.944772687620034
20
-14.936992559400718
10
32.039924062620031
20
-14.929222296900711
10
32.119278750120024
20
-14.919347046900715
10
32.186144587620014
20
-14.906108271900711
10
32.24382941262003
20
-14.88825485940071
10
32.344887375120045
20
-14.833669971900708
10
32.448922762620029
20
-14.745542646900709
10
32.551792425120013
20
-14.648156346900713
10
32.598807525120023
20
-14.49036395940071
10
32.645826337620015
20
-14.332567859400719
10
32.663724300120016
20
-13.90884167190071
42
0.029490978999998283
10
32.64946458762001
20
-13.061381871900746
10
32.617318050120019
20
-12.637648259400718
10
32.566668412620025
20
-12.496524996900721
42
0.10669993999998446
10
32.417715487620015
20
-12.253976234400717
10
32.319408487620017
20
-12.152550734400718
10
32.160101400120006
20
-12.09954737190073
0
LINE
5
339
100
AcDbEntity
8
0
100
AcDbLine
10
25.534985512620043
20
-11.051950409400725
30
0
11
25.686667125120053
21
-11.00938288440072
31
0
0
LWPOLYLINE
5
340
100
AcDbEntity
8
0
100
AcDbPolyline
90
101
70
1
43
0.0
10
29.78541933762002
20
-13.057402071900714
10
29.787980962620011
20
-13.18486704690072
10
29.787980962620011
20
-13.500800796900712
10
30.164632650120019
20
-13.500800796900712
10
30.541276912620027
20
-13.500800796900716
10
30.540315375120031
20
-13.241857634401587
42
0.031355277000040656
10
30.509453362620008
20
-12.75272833440072
10
30.479564025120006
20
-12.522549621900723
10
30.397127962620019
20
-12.371090759400714
10
30.314695612620028
20
-12.219628184400726
10
30.184561350120028
20
-12.126169709400729
42
0.083117464999996116
10
29.925595912620029
20
-11.99411237190073
10
29.79676473762003
20
-11.955517221900729
10
29.56175977512002
20
-11.967386084400719
10
29.326751100120045
20
-11.97925123440073
10
29.172871687620045
20
-12.074172434400728
10
29.018992275120027
20
-12.169093634400721
10
28.919942775120031
20
-12.334255334400726
10
28.820893275120024
20
-12.499413321900716
10
28.786545225120037
20
-12.696651021900713
10
28.772630775120032
20
-12.804836984400714
10
28.762417687620044
20
-12.941765121900715
10
28.755954225120032
20
-13.09737455940072
10
28.753284937620034
20
-13.26160813440071
10
28.75445808762003
20
-13.42440497190071
10
28.759518225120036
20
-13.575711621900716
10
28.768513612620033
20
-13.705463496900725
10
28.78148508762003
20
-13.803603434400721
42
0.042673539000016976
10
28.877456925120029
20
-14.136254571900704
10
28.944137137620032
20
-14.314469421900704
10
29.337461662620044
20
-14.731557659400703
10
29.494207125120042
20
-14.900933046900708
10
29.630221987620018
20
-15.053784096900708
10
29.685902062620031
20
-15.118767696900711
10
29.730934687620028
20
-15.173330309400711
10
29.763493312620032
20
-15.215374371900708
10
29.781758812620041
20
-15.242802321900708
10
29.83272772512003
20
-15.336966171900709
10
29.842985362620027
20
-15.697921409400706
10
29.853243000120031
20
-16.058872934400711
10
29.811982275120023
20
-16.137344046900708
10
29.765791350120029
20
-16.194342059400707
10
29.707445700120019
20
-16.222252634400711
10
29.645343000120029
20
-16.219338321900697
10
29.587877212620022
20
-16.183854246900708
10
29.536882312620037
20
-16.132863059400705
10
29.536607587620018
20
-15.829072896900694
42
0.029670584000008601
10
29.516545237620026
20
-15.360507134400711
10
29.49675018762003
20
-15.195724109400706
10
29.135720700120036
20
-15.195724109400706
10
28.774683787620035
20
-15.195724109400706
10
28.791876375120022
20
-15.690069471900712
10
28.809065250120042
20
-16.184422259400712
10
28.874037712620016
20
-16.389756921900712
10
28.939010175120021
20
-16.595084159400706
10
29.049694650120024
20
-16.724397959400701
42
0.10047160000000677
10
29.323406137620029
20
-16.934948684400716
10
29.486436862620025
20
-17.016189321900697
10
29.70783551262004
20
-17.013713084400703
10
29.801223450120027
20
-17.010152796900705
10
29.891849287620033
20
-17.002293434400709
10
29.969358862620012
20
-16.991297009400704
10
30.023386875120043
20
-16.9783218219007
10
30.170780550120018
20
-16.906637159400706
10
30.306984750120041
20
-16.801759034400707
10
30.423683475120015
20
-16.671416871900707
10
30.512579287620028
20
-16.523332671900711
10
30.574284750120015
20
-16.391427546900712
10
30.60639787512002
20
-16.047486696900705
10
30.63850728762004
20
-15.703545846900715
10
30.606160275120011
20
-15.330970484400712
10
30.583354387620012
20
-15.109297109400705
10
30.553728637620026
20
-14.924002521900711
10
30.512085525120014
20
-14.764554359400719
10
30.45322012512003
20
-14.620446246900716
10
30.371927512620019
20
-14.481145821900707
10
30.263006475120029
20
-14.336139284400705
10
30.196556437620032
20
-14.258210196900706
10
30.121252087620022
20
-14.174909121900715
10
30.036440025120026
20
-14.084918121900717
10
29.941466850120033
20
-13.986930396900705
10
29.795524762620033
20
-13.833593009400715
10
29.670985237620027
20
-13.694808621900719
10
29.620870200120031
20
-13.635642509400714
10
29.581057350120044
20
-13.585831896900713
10
29.553198750120035
20
-13.547292434400715
10
29.538946462620032
20
-13.521921209400725
10
29.525956425120043
20
-13.466181734400726
10
29.515323825120028
20
-13.37945773440071
10
29.508136425120021
20
-13.273603221900721
10
29.505496837620029
20
-13.160483346900717
10
29.505496837620029
20
-12.887024309400719
10
29.554357050120032
20
-12.817266434400725
10
29.605054950120035
20
-12.768179759400713
10
29.661184237620031
20
-12.750055334400713
10
29.714180175120013
20
-12.763271834400708
10
29.75548916262003
20
-12.808219071900711
10
29.762019450120036
20
-12.826863246900725
10
29.768107950120019
20
-12.856719171900721
10
29.77362472512003
20
-12.896249871900721
10
29.77843983762002
20
-12.943899809400715
0
LINE
5
341
100
AcDbEntity
8
0
100
AcDbLine
10
24.971108737620035
20
-9.8110695594007247
30
0
11
25.031704162620048
21
-9.8524008219007229
31
0
0
LINE
5
342
100
AcDbEntity
8
0
100
AcDbLine
10
25.107487425120034
20
-8.8293137844007177
30
0
11
24.994846462620039
21
-8.9282184969007403
31
0
0
LINE
5
343
100
AcDbEntity
8
0
100
AcDbLine
10
24.921015975120046
20
-9.7658067594007196
30
0
11
24.971108737620035
21
-9.8110695594007247
31
0
0
LINE
5
344
100
AcDbEntity
8
0
100
AcDbLine
10
24.904565887620038
20
-9.0236780094007223
30
0
11
24.843294787620039
21
-9.1286006844007357
31
0
0
LWPOLYLINE
5
345
100
AcDbEntity
8
0
100
AcDbPolyline
90
11
70
1
43
0.0
10
31.702610025120002
20
-13.481707409400714
10
31.702610025120002
20
-12.834863684400721
10
31.788925650120014
20
-12.855297284400713
42
-0.1603716999999841
10
31.930171425120019
20
-12.940647659400719
10
31.985097862620016
20
-13.005560721900714
10
31.985097862620016
20
-13.497296196900717
10
31.985097862620016
20
-13.989035384400712
10
31.936241362620024
20
-14.058793259400703
10
31.887373725120021
20
-14.128551134400711
10
31.794991875120033
20
-14.128551134400711
10
31.702610025120002
20
-14.128551134400711
0
LINE
5
346
100
AcDbEntity
8
0
100
AcDbLine
10
25.09356555012004
20
-9.1578106344007217
30
0
11
25.164336937620043
21
-9.0804421344007231
31
0
0
LINE
5
347
100
AcDbEntity
8
0
100
AcDbLine
10
25.043090400120036
20
-9.4659332844007267
30
0
11
25.018617600120052
21
-9.3744312969007204
31
0
0
LWPOLYLINE
5
348
100
AcDbEntity
8
0
100
AcDbPolyline
90
66
70
1
43
0.0
10
32.706340087620021
20
-16.34254505940071
10
32.695677787620028
20
-16.473403259400698
10
32.686478212620031
20
-16.585995959400709
10
32.678871300120029
20
-16.678633971900709
10
32.672998125120017
20
-16.749635534400703
10
32.668992337620033
20
-16.797326309400717
10
32.666987587620028
20
-16.820020821900698
10
32.65684132512002
20
-16.922029184400703
10
33.069533962620021
20
-16.922029184400703
10
33.482226600120043
20
-16.922029184400703
10
33.502489425120004
20
-16.616004096900706
42
0.016260639999987701
10
33.522919312620019
20
-16.160885009400708
10
33.523082662620027
20
-16.01179472190071
10
33.695713912620022
20
-16.01179472190071
10
33.868341450120028
20
-16.01179472190071
10
33.868341450120028
20
-16.163910696900711
42
0.017717790000015051
10
33.888734212620008
20
-16.603329621900709
10
33.909126975120039
20
-16.89063999690071
10
34.312464112620006
20
-16.89063999690071
10
34.715801250120009
20
-16.89063999690071
10
34.713919012620011
20
-16.820020821900698
10
34.712474850120032
20
-16.800611871900706
10
34.708602712620021
20
-16.757784471900706
10
34.702432537620027
20
-16.692782309400716
10
34.694090550120023
20
-16.606849071900708
10
34.683695550120028
20
-16.501224734400708
10
34.671381187620021
20
-16.377152984400702
10
34.65726997512003
20
-16.235877509400712
10
34.641480712620016
20
-16.078638284400707
10
34.624147050120023
20
-15.906686421900709
10
34.605387787620039
20
-15.721258184400714
10
34.585332862620028
20
-15.523597259400708
10
34.564104787620025
20
-15.31495104690072
10
34.518626662620036
20
-14.869666371900712
10
34.469963212620009
20
-14.395342521900712
10
34.227882225120027
20
-12.041287109400734
10
33.640078387620029
20
-12.032752071900719
10
33.521998612620017
20
-12.031300484400731
10
33.411841312620027
20
-12.030457746900719
10
33.31201961262002
20
-12.030205296900727
10
33.224939212620001
20
-12.030528284400727
10
33.153013237620009
20
-12.03140072190072
10
33.098651100120023
20
-12.032815184400732
10
33.064265925120026
20
-12.03474197190072
10
33.052270837620036
20
-12.037173659400723
10
33.051194212620004
20
-12.05272532190072
10
33.048057150120009
20
-12.09373730940073
10
33.042989587619999
20
-12.158524146900717
10
33.036136312620037
20
-12.245404071900722
10
33.027623550120005
20
-12.352695321900718
10
33.017592375120017
20
-12.47871984690072
10
33.006172725120038
20
-12.621792171900726
10
32.99350938762003
20
-12.780230534400712
10
32.979728587620016
20
-12.952353171900729
10
32.964971400120014
20
-13.136478321900704
10
32.949367762620028
20
-13.33092793440073
10
32.933058750120026
20
-13.534012821900721
10
32.898862912620046
20
-13.959376221900715
10
32.863464225120019
20
-14.399118134400709
10
32.827943025120014
20
-14.839780746900718
10
32.793387075120023
20
-15.267906246900711
10
32.776807050120027
20
-15.473066421900711
10
32.760876712620004
20
-15.670047959400701
10
32.745729712620019
20
-15.857169096900709
10
32.731499700120011
20
-16.032744359400716
10
32.718324037620022
20
-16.195099409400711
0
LINE
5
349
100
AcDbEntity
8
0
100
AcDbLine
10
24.797389725120045
20
-9.3911523969007273
30
0
11
24.797393437620052
21
-9.5521969344007385
31
0
0
LINE
5
350
100
AcDbEntity
8
0
100
AcDbLine
10
25.085910375120054
20
-9.5545283844007294
30
0
11
25.060205025120041
21
-9.5128444344007317
31
0
0
LINE
5
351
100
AcDbEntity
8
0
100
AcDbLine
10
25.396542675120024
20
-9.7168574469007201
30
0
11
25.305066675120038
21
-9.6874618719007355
31
0
0
LINE
5
352
100
AcDbEntity
8
0
100
AcDbLine
10
24.843294787620039
20
-9.1286006844007357
30
0
11
24.808430700120038
21
-9.2490638844007265
31
0
0
LINE
5
353
100
AcDbEntity
8
0
100
AcDbLine
10
25.262469450120033
20
-9.0256530594007209
30
0
11
25.388111587620045
21
-8.9933246094007284
31
0
0
LINE
5
354
100
AcDbEntity
8
0
100
AcDbLine
10
18.73551577512006
20
-16.984803846900697
30
0
11
19.139443200120077
21
-16.9848001344007
31
0
0
LINE
5
355
100
AcDbEntity
8
0
100
AcDbLine
10
24.994846462620039
20
-8.9282184969007403
30
0
11
24.904565887620038
21
-9.0236780094007223
31
0
0
LINE
5
356
100
AcDbEntity
8
0
100
AcDbLine
10
25.049999362620028
20
-9.2578773594007391
30
0
11
25.09356555012004
21
-9.1578106344007217
31
0
0
LINE
5
357
100
AcDbEntity
8
0
100
AcDbLine
10
25.121728575120052
20
-9.5919095469007374
30
0
11
25.085910375120054
21
-9.5545283844007294
31
0
0
LINE
5
358
100
AcDbEntity
8
0
100
AcDbLine
10
25.164336937620043
20
-9.0804421344007231
30
0
11
25.262469450120033
21
-9.0256530594007209
31
0
0
LINE
5
359
100
AcDbEntity
8
0
100
AcDbLine
10
24.84937215012004
20
-9.6617490969007243
30
0
11
24.880683375120043
21
-9.7161817719007253
31
0
0
LWPOLYLINE
5
360
100
AcDbEntity
8
0
100
AcDbPolyline
90
55
70
1
43
0.0
10
43.360472587619967
20
-13.03482635940072
42
0.13287251000000461
10
44.010832050120001
20
-11.900048759400729
10
44.071594537619994
20
-11.664639134400723
10
44.071809862619993
20
-11.319380346900733
10
44.072025187619978
20
-10.974121559400734
10
44.007360862619969
20
-10.723019196900722
10
43.959848287619977
20
-10.563726959400723
10
43.899605550119993
20
-10.402856909400725
10
43.828429500120009
20
-10.243631496900733
10
43.748120700119976
20
-10.089280596900728
10
43.660479712619981
20
-9.9430192344007331
10
43.567310812620008
20
-9.8080772844007313
10
43.470410850120004
20
-9.6876734844007313
10
43.371580387619979
20
-9.5850302844007338
10
43.295789700119997
20
-9.5142143469007294
10
43.00768856261999
20
-9.7384010844007225
10
42.89582351261997
20
-9.8273228844007239
10
42.804213862619974
20
-9.9037038594007374
10
42.768963675119984
20
-9.9346512594007219
10
42.74231906261997
20
-9.9594099219007344
10
42.725464312619991
20
-9.9769737594007211
10
42.719583712619965
20
-9.986314409400741
10
42.734585925119973
20
-10.009417296900736
10
42.775430850119996
20
-10.054776621900734
10
42.83588148762
20
-10.115839821900732
10
42.909697125119976
20
-10.186054334400733
10
42.982651462619977
20
-10.254394034400731
10
43.040748375120003
20
-10.310359971900724
10
43.078107262620009
20
-10.348175496900735
10
43.088851237619998
20
-10.362063959400732
10
43.075100137619998
20
-10.364209784400726
10
43.039942762619994
20
-10.370353971900732
10
42.985747687619991
20
-10.380073296900726
10
42.914876062619996
20
-10.39292968440073
10
42.829700175119982
20
-10.408496196900728
10
42.732581175119975
20
-10.426338471900733
10
42.625887637619975
20
-10.446029571900723
10
42.511980712619973
20
-10.467135134400724
10
41.946073200119976
20
-10.572206309400737
10
41.706479587619974
20
-10.757467484400742
10
41.466878550119986
20
-10.942732371900741
10
41.465486362619998
20
-11.47690172190072
10
41.46409046262
20
-12.011071071900719
10
42.253772625119979
20
-12.618937259400722
10
42.413432400119987
20
-12.741316109400723
10
42.564364087619985
20
-12.856002659400721
10
42.703122487619993
20
-12.96045013440072
10
42.826266112619969
20
-13.052111759400709
10
42.930349762619983
20
-13.128440759400714
10
43.01192452511998
20
-13.186890359400715
10
43.043194912619995
20
-13.208615909400725
10
43.067545200119987
20
-13.224917496900721
10
43.084548450119982
20
-13.235472134400712
10
43.093770300119999
20
-13.239964259400715
10
43.144085812619998
20
-13.253125071900712
0
LINE
5
361
100
AcDbEntity
8
0
100
AcDbLine
10
25.018617600120052
20
-9.3744312969007204
30
0
11
25.049999362620028
21
-9.2578773594007391
31
0
0
LINE
5
362
100
AcDbEntity
8
0
100
AcDbLine
10
25.060205025120041
20
-9.5128444344007317
30
0
11
25.043090400120036
21
-9.4659332844007267
31
0
0
LINE
5
363
100
AcDbEntity
8
0
100
AcDbLine
10
24.880683375120043
20
-9.7161817719007253
30
0
11
24.921015975120046
21
-9.7658067594007196
31
0
0
LWPOLYLINE
5
364
100
AcDbEntity
8
0
100
AcDbPolyline
90
55
70
1
43
0.0
10
27.424343587620026
20
-14.715148409400713
10
27.530160975120044
20
-14.736313371900723
10
27.614408737620021
20
-14.760749046900708
10
27.668355075120033
20
-14.789784509400704
10
27.70071693762003
20
-14.822094396900717
10
27.720771862620055
20
-15.518952921901333
42
-0.0047197592999804446
10
27.744312825120033
20
-16.568922171900709
10
27.747802575120033
20
-16.922029184400703
10
28.110725437620037
20
-16.922029184400703
10
28.473648300120029
20
-16.922029184400703
10
28.463836162620034
20
-15.909786359400711
10
28.454016600120042
20
-14.897539821900711
10
28.397423250120038
20
-14.771994209400713
10
28.336478850120031
20
-14.661525059400709
10
28.261519762620033
20
-14.566459071900697
10
28.176440400120036
20
-14.490946821900705
10
28.085138887620037
20
-14.439142596900712
10
27.990429300120034
20
-14.399912609400708
10
28.149372562620041
20
-14.329768634400713
10
28.308304687620041
20
-14.259624659400707
10
28.359763650120033
20
-14.160107384400703
10
28.38231708762002
20
-14.097852471900705
10
28.405665000120031
20
-14.001914046900716
10
28.427063850120035
20
-13.885378671900714
10
28.443751537620034
20
-13.761329196900704
10
28.476265612620033
20
-13.462071996900713
10
28.442537550120022
20
-13.096940196900714
10
28.427850900120035
20
-12.948354809400723
10
28.41308257512004
20
-12.825864584400716
10
28.396925775120025
20
-12.724483634400716
10
28.37808483762003
20
-12.639237209400726
10
28.327134487620036
20
-12.49720067190073
10
28.249799400120033
20
-12.359897571900726
10
28.154651737620018
20
-12.209860596900718
10
28.008171337620034
20
-12.14506633440072
10
27.861702075120036
20
-12.080279496900735
10
27.234638550120025
20
-12.063959346900715
10
26.607586162620038
20
-12.047639196900715
10
26.62833161262002
20
-12.687904371900727
10
26.630447737620035
20
-12.762529334400714
10
26.632504462620041
20
-12.853515284400721
10
26.634490650120036
20
-12.959603684400726
10
26.636395162620047
20
-13.079535996900722
10
26.638210575120031
20
-13.212053684400722
10
26.639925750120042
20
-13.35590192190072
10
26.641529550120033
20
-13.509818459400716
10
26.643010837620032
20
-13.672552184400724
10
26.645561325120035
20
-14.019425909400711
10
26.647491825120024
20
-14.386465934400716
10
26.648720662620036
20
-14.763607671900711
10
26.649162450120023
20
-15.140793959400707
10
26.649247837620024
20
-16.953418371900707
10
27.059560762620034
20
-16.953418371900707
10
27.469877400120033
20
-16.953418371900707
10
27.447116062620047
20
-15.834281534400709
0
LINE
5
365
100
AcDbEntity
8
0
100
AcDbLine
10
24.808430700120038
20
-9.2490638844007265
30
0
11
24.797389725120045
21
-9.3911523969007273
31
0
0
LINE
5
366
100
AcDbEntity
8
0
100
AcDbLine
10
19.45428176262007
20
-14.6057670219007
30
0
11
19.464858675120063
21
-14.762761221900703
31
0
0
LINE
5
367
100
AcDbEntity
8
0
100
AcDbLine
10
20.35404697512007
20
-16.639804934400694
30
0
11
20.342022187620064
21
-16.523559134400699
31
0
0
LINE
5
368
100
AcDbEntity
8
0
100
AcDbLine
10
18.450020812620071
20
-16.977887459400694
30
0
11
18.578618100120067
21
-16.982943884400687
31
0
0
LINE
5
369
100
AcDbEntity
8
0
100
AcDbLine
10
19.481746837620069
20
-15.019599396900695
30
0
11
19.487545762620062
21
-15.111658259400702
31
0
0
LINE
5
370
100
AcDbEntity
8
0
100
AcDbLine
10
18.330838425120067
20
-16.961262884400696
30
0
11
18.339232387620068
21
-16.965992609400701
31
0
0
LINE
5
371
100
AcDbEntity
8
0
100
AcDbLine
10
25.618854600120038
20
-9.7760606844007381
30
0
11
25.505738437620053
21
-9.7465611594007324
31
0
0
LINE
5
372
100
AcDbEntity
8
0
100
AcDbLine
10
18.578618100120067
20
-16.982943884400687
30
0
11
18.73551577512006
21
-16.984803846900697
31
0
0
LINE
5
373
100
AcDbEntity
8
0
100
AcDbLine
10
20.259393075120062
20
-15.714872684400699
30
0
11
20.239505212620067
21
-15.518945496900702
31
0
0
LINE
5
374
100
AcDbEntity
8
0
100
AcDbLine
10
20.372290200120062
20
-16.813898909400706
30
0
11
20.364189525120061
21
-16.737124409400707
31
0
0
LINE
5
375
100
AcDbEntity
8
0
100
AcDbLine
10
20.29629903762007
20
-16.077376034400697
30
0
11
20.278378800120063
21
-15.901552034400702
31
0
0
LINE
5
376
100
AcDbEntity
8
0
100
AcDbLine
10
19.191421912620061
20
-16.2238118844007
30
0
11
19.19883206262007
21
-16.176577746900698
31
0
0
LINE
5
377
100
AcDbEntity
8
0
100
AcDbLine
10
18.400484925120065
20
-16.974401421900708
30
0
11
18.450020812620071
21
-16.977887459400694
31
0
0
LINE
5
378
100
AcDbEntity
8
0
100
AcDbLine
10
19.217754675120069
20
-16.105954859400708
30
0
11
19.37103266262007
21
-16.105954859400708
31
0
0
LINE
5
379
100
AcDbEntity
8
0
100
AcDbLine
10
19.242646987620066
20
-14.340438359400707
30
0
11
19.266158250120075
21
-14.043612846900697
31
0
0
LINE
5
380
100
AcDbEntity
8
0
100
AcDbLine
10
25.839391950120039
20
-9.8512091094007292
30
0
11
25.781413837620022
21
-9.8262685344007235
31
0
0
LINE
5
381
100
AcDbEntity
8
0
100
AcDbLine
10
18.339232387620068
20
-16.965992609400701
30
0
11
18.362999812620071
21
-16.970403059400695
31
0
0
LINE
5
382
100
AcDbEntity
8
0
100
AcDbLine
10
19.37103266262007
20
-16.105954859400708
30
0
11
19.524314362620064
21
-16.105954859400708
31
0
0
LINE
5
383
100
AcDbEntity
8
0
100
AcDbLine
10
20.278378800120063
20
-15.901552034400702
30
0
11
20.259393075120062
21
-15.714872684400699
31
0
0
LINE
5
384
100
AcDbEntity
8
0
100
AcDbLine
10
25.781413837620022
20
-9.8262685344007235
30
0
11
25.709324512620046
21
-9.8019256719007188
31
0
0
LINE
5
385
100
AcDbEntity
8
0
100
AcDbLine
10
19.491243412620069
20
-15.174276996900712
30
0
11
19.492579912620069
21
-15.203568621900699
31
0
0
LINE
5
386
100
AcDbEntity
8
0
100
AcDbLine
10
25.709324512620046
20
-9.8019256719007188
30
0
11
25.618854600120038
21
-9.7760606844007381
31
0
0
LINE
5
387
100
AcDbEntity
8
0
100
AcDbLine
10
19.492579912620069
20
-15.203568621900699
30
0
11
19.492917750120075
21
-15.258495059400703
31
0
0
LINE
5
388
100
AcDbEntity
8
0
100
AcDbLine
10
26.021493787620045
20
-9.1132866219007251
30
0
11
26.021493787620045
21
-8.987507121900741
31
0
0
LWPOLYLINE
5
389
100
AcDbEntity
8
0
100
AcDbPolyline
90
89
70
1
43
0.0
10
34.867805850120021
20
-12.982914471900715
10
34.881007500120049
20
-14.520895559400721
10
34.894220287620016
20
-16.058872934400711
10
34.940901262620024
20
-16.231504184400709
10
34.97983796262001
20
-16.356604296900716
10
35.025880387620028
20
-16.469705609400709
10
35.079344100120018
20
-16.571227634400707
10
35.140548375120034
20
-16.661578746900705
10
35.209808775119996
20
-16.741174746900711
10
35.287440862620002
20
-16.810431434400712
10
35.373767625120031
20
-16.869753471900715
10
35.469100912620007
20
-16.919564084400701
10
35.610342975120012
20
-16.983422796900701
10
35.831737912620021
20
-16.984113321900701
10
36.053136562620018
20
-16.984800134400707
10
36.216571950119999
20
-16.903359021900705
10
36.38000733762
20
-16.821914196900703
10
36.488924662619993
20
-16.688995559400716
10
36.567083925120002
20
-16.582391121900713
10
36.631558912620001
20
-16.467879059400708
10
36.683355712619992
20
-16.341008084400706
10
36.723480412619992
20
-16.197312059400719
10
36.752939100120017
20
-16.032335984400707
10
36.772737862619998
20
-15.841617434400721
10
36.783879075120005
20
-15.620697696900709
10
36.787368825120012
20
-15.365114346900711
10
36.787368825120012
20
-14.942694959400715
10
36.402876337619986
20
-14.951501009400712
10
36.018380137619999
20
-14.960318196900705
10
36.001777837620004
20
-15.532923059400709
10
35.985175537620016
20
-16.105527921900705
10
35.933809387619995
20
-16.156890359400705
10
35.88244695012002
20
-16.208256509400705
10
35.801804025119999
20
-16.188015959400715
10
35.721153675120007
20
-16.167775409400711
10
35.697133800120014
20
-16.08194240940071
10
35.694687262620008
20
-16.064935446900705
10
35.692311262620024
20
-16.032206046900708
10
35.690013225120019
20
-15.984611796900715
10
35.687808000120008
20
-15.923010284400716
10
35.685710437620017
20
-15.848259096900703
10
35.683731675120008
20
-15.761226959400702
10
35.681879137620022
20
-15.662764034400713
10
35.680171387620007
20
-15.553735334400711
10
35.677234800119997
20
-15.307422096900712
10
35.675011012620018
20
-15.029166509400707
10
35.673607687620041
20
-14.725844121900709
10
35.673117637620031
20
-14.404341621900709
10
35.673113925120006
20
-12.812581259400719
10
35.725389637619998
20
-12.76027955940072
10
35.77766163762
20
-12.707981571900707
10
35.855323425119998
20
-12.727475909400713
10
35.915800050120026
20
-12.755902521900717
10
35.952145425120001
20
-12.796888521900719
10
35.956414800120015
20
-12.819998834400721
10
35.961215062620028
20
-12.866843159400714
10
35.966379150119998
20
-12.934588859400716
10
35.97174742512
20
-13.020407009400714
10
35.977152825120022
20
-13.121453834400709
10
35.982435712620024
20
-13.234907834400717
10
35.987429025120008
20
-13.357928946900719
10
35.991973125119998
20
-13.487684534400721
10
36.012644325120007
20
-14.128551134400711
10
36.400002862619999
20
-14.128551134400711
10
36.787368825120012
20
-14.128551134400711
10
36.787108950119993
20
-13.69697672190072
10
36.785052225120012
20
-13.514700396900722
10
36.779231025120012
20
-13.339674584400719
10
36.769853250119994
20
-13.173993134400718
10
36.75711937512002
20
-13.01975360940072
10
36.741237300119991
20
-12.879057284400711
10
36.722403787619989
20
-12.753998009400716
10
36.700826737620005
20
-12.646673346900727
10
36.676710337619987
20
-12.55918085940073
42
0.082745925999977099
10
36.512484187620018
20
-12.262578096900715
10
36.394775662619992
20
-12.107217396900726
10
36.226528875120003
20
-12.019327671900729
10
36.058289512620014
20
-11.931437946900726
10
35.82546007512002
20
-11.931437946900726
10
35.592630637619997
20
-11.931437946900726
10
35.485677225120028
20
-11.976121596900725
10
35.384596987620007
20
-12.028898496900723
10
35.28896670012
20
-12.099588209400714
10
35.20013400012003
20
-12.186315921900729
10
35.119427962619994
20
-12.287195684400727
10
35.04818880012003
20
-12.400345259400719
10
34.987753012620011
20
-12.523882409400716
10
34.939453387620027
20
-12.655924896900718
10
34.904630137619996
20
-12.794586771900709
0
LINE
5
390
100
AcDbEntity
8
0
100
AcDbLine
10
19.492917750120075
20
-15.258495059400703
30
0
11
19.334858062620075
21
-15.258495059400703
31
0
0
LINE
5
391
100
AcDbEntity
8
0
100
AcDbLine
10
20.32828222512007
20
-16.389994521900697
30
0
11
20.312986725120062
21
-16.240729746900694
31
0
0
LINE
5
392
100
AcDbEntity
8
0
100
AcDbLine
10
20.364189525120061
20
-16.737124409400707
30
0
11
20.35404697512007
21
-16.639804934400694
31
0
0
LINE
5
393
100
AcDbEntity
8
0
100
AcDbLine
10
18.362999812620071
20
-16.970403059400695
30
0
11
18.400484925120065
21
-16.974401421900708
31
0
0
LINE
5
394
100
AcDbEntity
8
0
100
AcDbLine
10
26.388630337620029
20
-8.875801709400724
30
0
11
26.39618898762004
21
-8.8983254469007314
31
0
0
LINE
5
395
100
AcDbEntity
8
0
100
AcDbLine
10
19.43014680012006
20
-14.254100459400698
30
0
11
19.442624512620064
21
-14.434914059400704
31
0
0
LINE
5
396
100
AcDbEntity
8
0
100
AcDbLine
10
20.17603631262007
20
-14.89184855940071
30
0
11
20.132180550120072
21
-14.457159359400702
31
0
0
LINE
5
397
100
AcDbEntity
8
0
100
AcDbLine
10
25.534261575120052
20
-8.7730471344007306
30
0
11
25.407995737620034
21
-8.7741126219007306
31
0
0
LINE
5
398
100
AcDbEntity
8
0
100
AcDbLine
10
26.362527750120034
20
-8.7926973969007278
30
0
11
26.384554012620033
21
-8.8633165719007234
31
0
0
LINE
5
399
100
AcDbEntity
8
0
100
AcDbLine
10
19.172866837620059
20
-16.710212496900702
30
0
11
19.177292137620057
21
-16.605081921900705
31
0
0
LINE
5
400
100
AcDbEntity
8
0
100
AcDbLine
10
25.966567350120037
20
-9.0917429844007245
30
0
11
26.021493787620045
21
-9.1132866219007251
31
0
0
LINE
5
401
100
AcDbEntity
8
0
100
AcDbLine
10
25.770874050120035
20
-8.8071612969007234
30
0
11
25.682353200120048
21
-8.790822584400722
31
0
0
LINE
5
402
100
AcDbEntity
8
0
100
AcDbLine
10
19.524314362620064
20
-16.105954859400708
30
0
11
19.528301587620046
21
-16.192270484400531
31
0
0
LINE
5
403
100
AcDbEntity
8
0
100
AcDbLine
10
25.336062337620035
20
-11.035418646900721
30
0
11
25.534985512620043
21
-11.051950409400725
31
0
0
LINE
5
404
100
AcDbEntity
8
0
100
AcDbLine
10
19.474099087620065
20
-14.902005959400704
30
0
11
19.481746837620069
21
-15.019599396900695
31
0
0
LINE
5
405
100
AcDbEntity
8
0
100
AcDbLine
10
19.571388862620068
20
-16.969107396900696
30
0
11
19.981961662620058
21
-16.977831771900696
31
0
0
LINE
5
406
100
AcDbEntity
8
0
100
AcDbLine
10
19.417665375120077
20
-14.072536934400702
30
0
11
19.43014680012006
21
-14.254100459400698
31
0
0
LINE
5
407
100
AcDbEntity
8
0
100
AcDbLine
10
20.132180550120072
20
-14.457159359400702
30
0
11
20.08861436262006
21
-14.024233596900697
31
0
0
LINE
5
408
100
AcDbEntity
8
0
100
AcDbLine
10
19.219180275120056
20
-14.652496259400694
30
0
11
19.242646987620066
21
-14.340438359400707
31
0
0
LINE
5
409
100
AcDbEntity
8
0
100
AcDbLine
10
19.551842550120089
20
-16.623848609401065
30
0
11
19.571388862620068
21
-16.969107396900696
31
0
0
LINE
5
410
100
AcDbEntity
8
0
100
AcDbLine
10
25.604320162620049
20
-8.7795031719007266
30
0
11
25.534261575120052
21
-8.7730471344007306
31
0
0
LINE
5
411
100
AcDbEntity
8
0
100
AcDbLine
10
19.442624512620064
20
-14.434914059400704
30
0
11
19.45428176262007
21
-14.6057670219007
31
0
0
LINE
5
412
100
AcDbEntity
8
0
100
AcDbLine
10
26.407036912620036
20
-8.9303197719007237
30
0
11
26.42097735012004
21
-8.9712315219007355
31
0
0
LINE
5
413
100
AcDbEntity
8
0
100
AcDbLine
10
20.239505212620067
20
-15.518945496900702
30
0
11
20.218871137620059
21
-15.315389121900713
31
0
0
LINE
5
414
100
AcDbEntity
8
0
100
AcDbLine
10
26.021493787620045
20
-8.987507121900741
30
0
11
26.021493787620045
21
-8.8617313344007282
31
0
0
LINE
5
415
100
AcDbEntity
8
0
100
AcDbLine
10
19.180922962620059
20
-16.395229146900693
30
0
11
19.185236887620064
21
-16.300215134400688
31
0
0
LINE
5
416
100
AcDbEntity
8
0
100
AcDbLine
10
25.930110600120049
20
-9.9113330469007259
30
0
11
25.839391950120039
21
-9.8512091094007292
31
0
0
LINE
5
417
100
AcDbEntity
8
0
100
AcDbLine
10
20.218871137620059
20
-15.315389121900713
30
0
11
20.17603631262007
21
-14.89184855940071
31
0
0
LINE
5
418
100
AcDbEntity
8
0
100
AcDbLine
10
25.407995737620034
20
-8.7741126219007306
30
0
11
25.283422800120036
21
-8.7927939219007261
31
0
0
LINE
5
419
100
AcDbEntity
8
0
100
AcDbLine
10
19.266158250120075
20
-14.043612846900697
30
0
11
19.288715400120058
21
-13.773628709400715
31
0
0
ARC
5
420
100
AcDbEntity
8
0
100
AcDbCircle
10
25.234364220188947
20
-11.144605903468477
30
0
40
2.1795338006014626
210
0
220
-0
230
1
100
AcDbArc
50
70.369996697027958
51
77.035934436230022
0
LINE
5
421
100
AcDbEntity
8
0
100
AcDbLine
10
26.021493787620045
20
-8.8617313344007282
30
0
11
25.87240721262004
21
-8.8286715219007323
31
0
0
LINE
5
422
100
AcDbEntity
8
0
100
AcDbLine
10
19.406008125120071
20
-13.899541859400703
30
0
11
19.417665375120077
21
-14.072536934400702
31
0
0
LWPOLYLINE
5
423
100
AcDbEntity
8
0
100
AcDbPolyline
90
34
70
1
43
0.0
10
33.523082662620027
20
-15.195724109400706
10
33.52239585012002
20
-15.093712034400717
10
33.523695225120029
20
-15.029363271900703
10
33.527975737620025
20
-14.935507559400714
10
33.534855000120025
20
-14.816789234400712
10
33.543946912620029
20
-14.677856346900718
10
33.567231712620014
20
-14.357913096900702
10
33.594748762620014
20
-14.012832509400706
10
33.60913841262002
20
-13.842473309400711
10
33.623427825120025
20
-13.679765571900715
10
33.637238325120038
20
-13.529342496900721
10
33.650180100120011
20
-13.395859559400714
10
33.661874475120015
20
-13.283953671900717
10
33.67193535012003
20
-13.19827288440071
10
33.67997291262003
20
-13.143457821900707
10
33.685608487620023
20
-13.124152821900715
10
33.695624812620032
20
-13.13771829690072
10
33.70382943762003
20
-13.17464653440071
10
33.709368487620011
20
-13.229301959400711
10
33.711406650120011
20
-13.296041571900709
10
33.712342200120027
20
-13.343873421900721
10
33.715015200120028
20
-13.414258709400714
10
33.719232600120044
20
-13.504097496900727
10
33.724782787620036
20
-13.610289846900713
10
33.739109325120026
20
-13.859320634400714
10
33.756394725120032
20
-14.136533009400715
10
33.775042612619998
20
-14.41711633440071
10
33.793449187620027
20
-14.676252546900708
10
33.802065900119999
20
-14.790025821900702
10
33.81002550012002
20
-14.889131009400716
10
33.817123800120008
20
-14.970471884400707
10
33.823164037620025
20
-15.030937371900723
10
33.841474087620007
20
-15.195724109400706
10
33.682274662620017
20
-15.195724109400706
0
LINE
5
424
100
AcDbEntity
8
0
100
AcDbLine
10
26.39618898762004
20
-8.8983254469007314
30
0
11
26.407036912620036
21
-8.9303197719007237
31
0
0
LINE
5
425
100
AcDbEntity
8
0
100
AcDbLine
10
19.177292137620057
20
-16.605081921900705
30
0
11
19.179129825120064
21
-16.498299284400694
31
0
0
ARC
5
426
100
AcDbEntity
8
0
100
AcDbCircle
10
61.425445581411026
20
-14.123370054916798
30
0
40
41.948194524002737
210
0
220
0
230
1
100
AcDbArc
50
182.82699588476393
51
183.41735438580989
0
LINE
5
427
100
AcDbEntity
8
0
100
AcDbLine
10
19.196582287620064
20
-12.104091471900716
30
0
11
19.086354450120066
21
-12.108487071900713
31
0
0
LWPOLYLINE
5
428
100
AcDbEntity
8
0
100
AcDbPolyline
90
14
70
1
43
0.0
10
27.70071693762004
20
-12.992915946900718
10
27.710870625120045
20
-13.380255921900712
10
27.721020600120045
20
-13.767599609400719
10
27.687790012620034
20
-13.854750546900716
10
27.654589125120033
20
-13.910935521900711
10
27.604418400120025
20
-13.956309696900702
10
27.542278575120033
20
-13.987468709400714
10
27.473162962620027
20
-14.001011909400711
10
27.43392926262004
20
-14.003001809400713
10
27.43392926262004
20
-13.43802984690071
10
27.43392926262004
20
-12.873054171900723
10
27.493225312620044
20
-12.873054171900723
10
27.556872412620042
20
-12.890658846900713
10
27.626622862620032
20
-12.932985059400721
0
LINE
5
429
100
AcDbEntity
8
0
100
AcDbLine
10
20.342022187620064
20
-16.523559134400699
30
0
11
20.32828222512007
21
-16.389994521900697
31
0
0
LINE
5
430
100
AcDbEntity
8
0
100
AcDbLine
10
19.196756775120065
20
-14.968162709400698
30
0
11
19.219180275120056
21
-14.652496259400694
31
0
0
LINE
5
431
100
AcDbEntity
8
0
100
AcDbLine
10
19.176787237620069
20
-15.258495059400703
30
0
11
19.196760487620065
21
-14.968162709400698
31
0
0
LINE
5
432
100
AcDbEntity
8
0
100
AcDbLine
10
25.505738437620053
20
-9.7465611594007324
30
0
11
25.396542675120024
21
-9.7168574469007201
31
0
0
LINE
5
433
100
AcDbEntity
8
0
100
AcDbLine
10
19.464858675120063
20
-14.762761221900703
30
0
11
19.474099087620065
21
-14.902005959400704
31
0
0
LINE
5
434
100
AcDbEntity
8
0
100
AcDbLine
10
19.487545762620062
20
-15.111658259400702
30
0
11
19.491243412620069
21
-15.174276996900712
31
0
0
LINE
5
435
100
AcDbEntity
8
0
100
AcDbLine
10
26.384554012620033
20
-8.8633165719007234
30
0
11
26.388630337620029
21
-8.875801709400724
31
0
0
LINE
5
436
100
AcDbEntity
8
0
100
AcDbLine
10
25.87240721262004
20
-8.8286715219007323
30
0
11
25.770874050120035
21
-8.8071612969007234
31
0
0
LINE
5
437
100
AcDbEntity
8
0
100
AcDbLine
10
19.185236887620064
20
-16.300215134400688
30
0
11
19.191421912620061
21
-16.2238118844007
31
0
0
LINE
5
438
100
AcDbEntity
8
0
100
AcDbLine
10
25.534985512620043
20
-8.9710533219007189
30
0
11
25.723320637620034
21
-9.0206263344007294
31
0
0
LINE
5
439
100
AcDbEntity
8
0
100
AcDbLine
10
19.334858062620075
20
-15.258495059400703
30
0
11
19.176787237620069
21
-15.258495059400703
31
0
0
LINE
5
440
100
AcDbEntity
8
0
100
AcDbLine
10
25.031704162620048
20
-9.8524008219007229
30
0
11
25.10352990012003
21
-9.8902534719007207
31
0
0
LINE
5
441
100
AcDbEntity
8
0
100
AcDbLine
10
25.682353200120048
20
-8.790822584400722
30
0
11
25.604320162620049
21
-8.7795031719007266
31
0
0
LINE
5
442
100
AcDbEntity
8
0
100
AcDbLine
10
25.388111587620045
20
-8.9933246094007284
30
0
11
25.534985512620043
21
-8.9710533219007189
31
0
0
LINE
5
443
100
AcDbEntity
8
0
100
AcDbLine
10
17.496632250120079
20
-10.833336134400721
30
0
11
17.413219800120064
21
-10.846860771900715
31
0
0
LWPOLYLINE
5
444
100
AcDbEntity
8
0
100
AcDbPolyline
90
14
70
1
43
0.0
10
20.321662837620057
20
-10.657107471900712
10
20.325423600120068
20
-10.748679996900714
10
20.329447950120066
20
-10.809334821900716
10
20.349450900120051
20
-11.02119977190072
10
20.454770812620069
20
-11.02119977190072
10
20.560090725120077
20
-11.02119977190072
10
20.560090725120077
20
-9.9226450344007215
10
20.560090725120077
20
-8.8240828719007229
10
20.434537687620068
20
-8.8240828719007229
10
20.308992075120067
20
-8.8240828719007229
10
20.309207400120059
20
-9.7107800844007279
10
20.310881737620072
20
-10.071779871900723
10
20.315251350120072
20
-10.399240934400716
10
20.318243625120065
20
-10.539124221900719
0
LWPOLYLINE
5
445
100
AcDbEntity
8
0
100
AcDbPolyline
90
24
70
1
43
0.0
10
19.382277825120077
20
-10.23321793440072
10
19.262516287620077
20
-10.235631059400728
10
19.116273487620067
20
-10.236514634400715
10
18.970026975120064
20
-10.234996221900714
10
18.850265437620063
20
-10.230856784400721
10
18.80417475012008
20
-10.22800187190072
10
18.76934407512007
20
-10.224731159400713
10
18.747310387620068
20
-10.221122609400714
10
18.739621800120066
20
-10.217250471900712
10
18.743252625120078
20
-10.202188859400717
10
18.753647625120081
20
-10.166504309400722
10
18.770086575120068
20
-10.112517134400713
10
18.791834400120067
20
-10.042566209400714
10
18.818167162620071
20
-9.9589718469007149
10
18.84835350012008
20
-9.8640617844007128
10
18.881662050120063
20
-9.760171184400722
10
18.917365162620072
20
-9.6496240719007158
10
19.095112237620064
20
-9.1012544094007239
10
19.120409212620071
20
-9.1464615219007293
10
19.315360012620072
20
-9.6917683719007268
10
19.492921462620068
20
-10.225291746900719
10
19.485232875120076
20
-10.227545234400722
10
19.463199187620074
20
-10.229650221900709
10
19.428368512620068
20
-10.231554734400719
0
LINE
5
446
100
AcDbEntity
8
0
100
AcDbLine
10
19.334368012620061
20
-13.29233649690071
30
0
11
19.340660700120068
21
-13.240892384400702
31
0
0
LINE
5
447
100
AcDbEntity
8
0
100
AcDbLine
10
19.920612600120069
20
-12.338120046900723
30
0
11
19.912255762620063
21
-12.25184525940071
31
0
0
LINE
5
448
100
AcDbEntity
8
0
100
AcDbLine
10
16.354095525120059
20
-10.543230246900714
30
0
11
16.423704900120061
21
-10.705050696900713
31
0
0
LINE
5
449
100
AcDbEntity
8
0
100
AcDbLine
10
19.309316062620066
20
-13.542102359400713
30
0
11
19.318571325120061
21
-13.444393071900706
31
0
0
LINE
5
450
100
AcDbEntity
8
0
100
AcDbLine
10
17.123173312620072
20
-10.871251896900713
30
0
11
16.991205075120067
21
-10.835541359400722
31
0
0
LINE
5
451
100
AcDbEntity
8
0
100
AcDbLine
10
16.811353012620074
20
-10.755462734400723
30
0
11
16.736950800120066
21
-10.69565064690072
31
0
0
LWPOLYLINE
5
452
100
AcDbEntity
8
0
100
AcDbPolyline
90
44
70
1
43
0.0
10
19.66554900012007
20
-10.738711934400719
10
19.755822150120064
20
-11.02119977190072
10
19.875476025120058
20
-11.02119977190072
10
19.921915687620075
20
-11.020579784400713
10
19.959916837620057
20
-11.01889430940072
10
19.985562787620069
20
-11.016399509400719
10
19.994929425120056
20
-11.013351546900713
10
19.992984075120063
20
-11.007018021900716
10
19.987311375120072
20
-10.989996209400719
10
19.978108087620054
20
-10.962839271900716
10
19.965559837620056
20
-10.92610037190072
10
19.931189512620058
20
-10.826074484400724
10
19.885726237620069
20
-10.694328996900717
10
19.830699562620072
20
-10.535274359400722
10
19.767627900120068
20
-10.353317309400719
10
19.69803337512008
20
-10.152868296900714
10
19.623445537620064
20
-9.9383340594007183
10
19.252150987620066
20
-8.8711610844007289
10
19.10922716262008
20
-8.8617424719007225
10
18.966303337620065
20
-8.8523164344007235
10
18.913767750120073
20
-9.0029808219007208
10
18.88863412512007
20
-9.0757086969007208
10
18.854148712620059
20
-9.1764251094007321
10
18.811829925120072
20
-9.3006490719007147
10
18.763188750120072
20
-9.4438773219007235
10
18.652998037620073
20
-9.769400459400714
10
18.535683037620071
20
-10.117053809400725
10
18.478143000120074
20
-10.287947609400717
10
18.423361350120064
20
-10.450896659400716
10
18.372852787620072
20
-10.60140883440072
10
18.32813572512007
20
-10.734995721900713
10
18.290721150120056
20
-10.847157771900715
10
18.262120050120071
20
-10.933402859400713
10
18.243850837620062
20
-10.989246284400714
10
18.237424500120071
20
-11.010188496900719
10
18.247077000120079
20
-11.01446529690072
10
18.273354075120078
20
-11.017966184400718
10
18.312246225120077
20
-11.020331046900715
10
18.359736525120056
20
-11.02119977190072
10
18.482052262620069
20
-11.02119977190072
10
18.568702012620072
20
-10.738711934400719
10
18.655351762620064
20
-10.456224096900719
10
19.115311950120066
20
-10.456224096900719
10
19.575272137620068
20
-10.456224096900719
0
LINE
5
453
100
AcDbEntity
8
0
100
AcDbLine
10
16.22102838762007
20
-9.9538671594007155
30
0
11
16.252751700120065
21
-10.167636621900719
31
0
0
LINE
5
454
100
AcDbEntity
8
0
100
AcDbLine
10
20.007544500120069
20
-13.215346671900715
30
0
11
19.989486900120053
21
-13.034406846900715
31
0
0
LINE
5
455
100
AcDbEntity
8
0
100
AcDbLine
10
20.026649025120058
20
-13.406414196900705
30
0
11
20.007544500120069
21
-13.215346671900715
31
0
0
LWPOLYLINE
5
456
100
AcDbEntity
8
0
100
AcDbPolyline
90
63
70
1
43
0.0
10
40.950733387620019
20
-12.073296284400723
10
40.953807337619992
20
-12.203411984400718
10
40.956239025119984
20
-12.342021884400719
10
40.966277625120014
20
-13.029992684400719
10
41.215185900119977
20
-13.029992684400719
10
41.46409046262
20
-13.029992684400719
10
41.46409046262
20
-12.747504846900719
10
41.465426962619993
20
-12.637822746900733
10
41.469065212619995
20
-12.54799880940074
10
41.471574862619988
20
-12.513435434400723
10
41.47444833761999
20
-12.487310571900727
10
41.47762252511999
20
-12.470786234400716
10
41.481023175119986
20
-12.46502072190073
10
41.496823575119983
20
-12.475148421900727
10
41.536703250120006
20
-12.503853471900721
10
41.597339512619989
20
-12.54860023440072
10
41.675409675119973
20
-12.606864209400717
10
41.767591050119968
20
-12.676117184400734
10
41.870557237619963
20
-12.753830946900715
10
41.980992975119989
20
-12.83748099690072
10
42.095568150119973
20
-12.924527984400722
10
42.323853487619978
20
-13.098729621900729
10
42.528835462619988
20
-13.25620644690072
10
42.614282362619988
20
-13.322352059400728
10
42.683932575119989
20
-13.376732759400715
10
42.734463412619981
20
-13.416820334400709
10
42.762552187619995
20
-13.440086571900714
10
42.765466500119999
20
-13.455545421900725
10
42.747542550119988
20
-13.476376259400705
10
42.710807362619988
20
-13.501580421900725
10
42.657287962620003
20
-13.530170384400716
10
42.589007662619977
20
-13.56115862190072
10
42.507989775119981
20
-13.593550184400714
10
42.416257612619972
20
-13.626357546900715
10
42.315834487619988
20
-13.658593184400729
10
42.146678137619979
20
-13.701483696900718
10
41.965125750119995
20
-13.732019009400709
10
41.775402150120001
20
-13.750206546900721
10
41.581728450119982
20
-13.756057446900714
10
41.388329475119995
20
-13.749575421900724
10
41.199430050119986
20
-13.730767896900716
10
41.019258712620001
20
-13.699638584400713
10
40.85203657512001
20
-13.656198621900735
42
-0.24460243000000392
10
39.219728287620008
20
-12.047512971900714
10
39.189322912619993
20
-11.946748296900722
10
39.164423175119992
20
-11.853393771900723
10
39.14760183761998
20
-11.777859246900725
10
39.141424237620001
20
-11.730539721900719
10
39.14142052511999
20
-11.658435546900732
10
40.023447412620001
20
-11.635948934400728
10
40.201045987619977
20
-11.631842909400724
10
40.367529337619992
20
-11.628817221900718
10
40.519203525119977
20
-11.626875584400732
10
40.652359762619994
20
-11.626025421900735
10
40.763304112619998
20
-11.626281584400719
10
40.848331500119997
20
-11.627647784400734
10
40.903744275119976
20
-11.630135159400734
10
40.925837362620001
20
-11.633754846900732
10
40.930132725119996
20
-11.651875559400725
10
40.934535750119998
20
-11.695920659400729
10
40.938920212619998
20
-11.76299439690073
10
40.94316731262002
20
-11.850182459400722
10
40.947147112619994
20
-11.954585384400719
0
LINE
5
457
100
AcDbEntity
8
0
100
AcDbLine
10
19.97264328762007
20
-12.865209659400712
30
0
11
19.957169587620058
21
-12.709370046900709
31
0
0
LINE
5
458
100
AcDbEntity
8
0
100
AcDbLine
10
19.902265425120056
20
-12.145192559400721
30
0
11
19.900954912620069
21
-12.128040809400723
31
0
0
LINE
5
459
100
AcDbEntity
8
0
100
AcDbLine
10
17.703841725120071
20
-10.760025396900716
30
0
11
17.617522387620067
21
-10.800361709400722
31
0
0
LINE
5
460
100
AcDbEntity
8
0
100
AcDbLine
10
19.349399925120053
20
-13.19443787190071
30
0
11
19.35640541262007
21
-13.194682896900712
31
0
0
LINE
5
461
100
AcDbEntity
8
0
100
AcDbLine
10
17.327190037620067
20
-10.855974959400715
30
0
11
17.123173312620072
21
-10.871251896900713
31
0
0
LINE
5
462
100
AcDbEntity
8
0
100
AcDbLine
10
19.35640541262007
20
-13.194682896900712
30
0
11
19.362193200120071
21
-13.208638184400714
31
0
0
LINE
5
463
100
AcDbEntity
8
0
100
AcDbLine
10
16.672561200120079
20
-10.622195121900715
30
0
11
16.617928050120064
21
-10.534762034400721
31
0
0
LINE
5
464
100
AcDbEntity
8
0
100
AcDbLine
10
19.326965287620077
20
-13.36065392190071
30
0
11
19.334368012620061
21
-13.29233649690071
31
0
0
LINE
5
465
100
AcDbEntity
8
0
100
AcDbLine
10
19.930992750120069
20
-12.44420844690071
30
0
11
19.920612600120069
21
-12.338120046900723
31
0
0
LINE
5
466
100
AcDbEntity
8
0
100
AcDbLine
10
18.898687575120064
20
-12.116791934400721
30
0
11
18.826104487620064
21
-12.120463596900727
31
0
0
LINE
5
467
100
AcDbEntity
8
0
100
AcDbLine
10
17.617522387620067
20
-10.800361709400722
30
0
11
17.56791225012007
21
-10.817231309400722
31
0
0
LINE
5
468
100
AcDbEntity
8
0
100
AcDbLine
10
19.957169587620058
20
-12.709370046900709
30
0
11
19.943232862620064
21
-12.568495521900713
31
0
0
LINE
5
469
100
AcDbEntity
8
0
100
AcDbLine
10
19.386190800120062
20
-13.595439846900707
30
0
11
19.39543121262005
21
-13.739161859400713
31
0
0
LINE
5
470
100
AcDbEntity
8
0
100
AcDbLine
10
16.423704900120061
20
-10.705050696900713
30
0
11
16.573392900120062
21
-10.845063921900724
31
0
0
LINE
5
471
100
AcDbEntity
8
0
100
AcDbLine
10
19.340660700120068
20
-13.240892384400702
30
0
11
19.345713412620064
21
-13.207776884400708
31
0
0
LINE
5
472
100
AcDbEntity
8
0
100
AcDbLine
10
17.736842137620073
20
-10.963466684400725
30
0
11
17.857646887620074
21
-10.897877946900714
31
0
0
LINE
5
473
100
AcDbEntity
8
0
100
AcDbLine
10
17.56791225012007
20
-10.817231309400722
30
0
11
17.496632250120079
21
-10.833336134400721
31
0
0
LINE
5
474
100
AcDbEntity
8
0
100
AcDbLine
10
19.29932201262007
20
-13.652333909400713
30
0
11
19.309316062620066
21
-13.542102359400713
31
0
0
LINE
5
475
100
AcDbEntity
8
0
100
AcDbLine
10
17.954940375120081
20
-10.828602696900713
30
0
11
17.954940375120081
21
-10.375622009400713
31
0
0
LINE
5
476
100
AcDbEntity
8
0
100
AcDbLine
10
19.912255762620063
20
-12.25184525940071
30
0
11
19.906089300120055
21
-12.186999021900714
31
0
0
LINE
5
477
100
AcDbEntity
8
0
100
AcDbLine
10
16.572798900120059
20
-10.43299869690072
30
0
11
16.536921300120074
21
-10.316567271900723
31
0
0
LINE
5
478
100
AcDbEntity
8
0
100
AcDbLine
10
19.989486900120053
20
-13.034406846900715
30
0
11
19.97264328762007
21
-12.865209659400712
31
0
0
LINE
5
479
100
AcDbEntity
8
0
100
AcDbLine
10
16.723080900120056
20
-10.985080859400727
30
0
11
16.88959023762007
21
-11.03452393440072
31
0
0
LINE
5
480
100
AcDbEntity
8
0
100
AcDbLine
10
19.369046475120069
20
-13.304661996900716
30
0
11
19.372744125120075
21
-13.374145146900711
31
0
0
LINE
5
481
100
AcDbEntity
8
0
100
AcDbLine
10
17.484124837620069
20
-10.142354496900722
30
0
11
17.703841725120071
21
-10.142354496900722
31
0
0
LINE
5
482
100
AcDbEntity
8
0
100
AcDbLine
10
16.536921300120074
20
-10.316567271900723
30
0
11
16.510039087620068
21
-10.185126209400721
31
0
0
LINE
5
483
100
AcDbEntity
8
0
100
AcDbLine
10
19.906089300120055
20
-12.186999021900714
30
0
11
19.902265425120056
21
-12.145192559400721
31
0
0
LINE
5
484
100
AcDbEntity
8
0
100
AcDbLine
10
19.900954912620069
20
-12.128040809400723
30
0
11
19.900954912620069
21
-12.078501209400713
31
0
0
LINE
5
485
100
AcDbEntity
8
0
100
AcDbLine
10
17.413219800120064
20
-10.846860771900715
30
0
11
17.327190037620067
21
-10.855974959400715
31
0
0
LINE
5
486
100
AcDbEntity
8
0
100
AcDbLine
10
19.372744125120075
20
-13.374145146900711
30
0
11
19.378543050120062
21
-13.472418734400712
31
0
0
LINE
5
487
100
AcDbEntity
8
0
100
AcDbLine
10
19.943232862620064
20
-12.568495521900713
30
0
11
19.930992750120069
21
-12.44420844690071
31
0
0
LINE
5
488
100
AcDbEntity
8
0
100
AcDbLine
10
19.362193200120071
20
-13.208638184400714
30
0
11
19.366161862620064
21
-13.233886896900703
31
0
0
LINE
5
489
100
AcDbEntity
8
0
100
AcDbLine
10
17.26441166262007
20
-10.142354496900722
30
0
11
17.484124837620069
21
-10.142354496900722
31
0
0
LINE
5
490
100
AcDbEntity
8
0
100
AcDbLine
10
19.086354450120066
20
-12.108487071900713
30
0
11
18.986246887620066
21
-12.112760159400713
31
0
0
LINE
5
491
100
AcDbEntity
8
0
100
AcDbLine
10
17.703841725120071
20
-10.142354496900722
30
0
11
17.703841725120071
21
-10.451189946900712
31
0
0
LINE
5
492
100
AcDbEntity
8
0
100
AcDbLine
10
19.318571325120061
20
-13.444393071900706
30
0
11
19.326965287620077
21
-13.36065392190071
31
0
0
ARC
5
493
100
AcDbEntity
8
0
100
AcDbCircle
10
17.219030286554251
20
-9.9048513672419709
30
0
40
1.1767288790680681
210
0
220
0
230
1
100
AcDbArc
50
253.74202882412658
51
288.01799543141516
0
LINE
5
494
100
AcDbEntity
8
0
100
AcDbLine
10
19.900954912620069
20
-12.078501209400713
30
0
11
19.314498712620054
21
-12.099688446900714
31
0
0
LINE
5
495
100
AcDbEntity
8
0
100
AcDbLine
10
17.857646887620074
20
-10.897877946900714
30
0
11
17.954940375120081
21
-10.828602696900713
31
0
0
LINE
5
496
100
AcDbEntity
8
0
100
AcDbLine
10
19.367713687620075
20
-13.268012196900717
30
0
11
19.369046475120069
21
-13.304661996900716
31
0
0
LINE
5
497
100
AcDbEntity
8
0
100
AcDbLine
10
20.046637125120064
20
-13.605994484400714
30
0
11
20.026649025120058
21
-13.406414196900705
31
0
0
ARC
5
498
100
AcDbEntity
8
0
100
AcDbCircle
10
17.745956127287212
20
-9.9662048826029341
30
0
40
1.5067296396195615
210
0
220
0
230
1
100
AcDbArc
50
187.6827627127654
51
202.51748961229967
0
LINE
5
499
100
AcDbEntity
8
0
100
AcDbLine
10
19.314498712620054
20
-12.099688446900714
30
0
11
19.196582287620064
21
-12.104091471900716
31
0
0
LINE
5
500
100
AcDbEntity
8
0
100
AcDbLine
10
18.722496037620079
20
-12.128163321900715
30
0
11
18.524051775120057
21
-14.530908171900702
31
0
0
LINE
5
501
100
AcDbEntity
8
0
100
AcDbLine
10
17.703841725120071
20
-10.451189946900712
30
0
11
17.703841725120071
21
-10.760025396900716
31
0
0
LINE
5
502
100
AcDbEntity
8
0
100
AcDbLine
10
18.770925600120073
20
-12.123660059400725
30
0
11
18.735582600120075
21
-12.126266234400722
31
0
0
LINE
5
503
100
AcDbEntity
8
0
100
AcDbLine
10
17.583007275120064
20
-11.023876484400713
30
0
11
17.736842137620073
21
-10.963466684400725
31
0
0
LINE
5
504
100
AcDbEntity
8
0
100
AcDbLine
10
16.896020287620072
20
-10.801980359400726
30
0
11
16.811353012620074
21
-10.755462734400723
31
0
0
LINE
5
505
100
AcDbEntity
8
0
100
AcDbLine
10
19.366161862620064
20
-13.233886896900703
30
0
11
19.367713687620075
21
-13.268012196900717
31
0
0
LINE
5
506
100
AcDbEntity
8
0
100
AcDbLine
10
16.573392900120062
20
-10.845063921900724
30
0
11
16.723080900120056
21
-10.985080859400727
31
0
0
LINE
5
507
100
AcDbEntity
8
0
100
AcDbLine
10
19.166514750120072
20
-16.801584546900699
30
0
11
19.172866837620059
21
-16.710212496900702
31
0
0
LINE
5
508
100
AcDbEntity
8
0
100
AcDbLine
10
19.288715400120058
20
-13.773628709400715
30
0
11
19.29932201262007
21
-13.652333909400713
31
0
0
LINE
5
509
100
AcDbEntity
8
0
100
AcDbLine
10
17.26441166262007
20
-10.032497909400714
30
0
11
17.26441166262007
21
-10.142354496900722
31
0
0
LINE
5
510
100
AcDbEntity
8
0
100
AcDbLine
10
19.39543121262005
20
-13.739161859400713
30
0
11
19.406008125120071
21
-13.899541859400703
31
0
0
LINE
5
511
100
AcDbEntity
8
0
100
AcDbLine
10
16.617928050120064
20
-10.534762034400721
30
0
11
16.572798900120059
21
-10.43299869690072
31
0
0
LINE
5
512
100
AcDbEntity
8
0
100
AcDbLine
10
19.378543050120062
20
-13.472418734400712
30
0
11
19.386190800120062
21
-13.595439846900707
31
0
0
LINE
5
513
100
AcDbEntity
8
0
100
AcDbLine
10
16.991205075120067
20
-10.835541359400722
30
0
11
16.896020287620072
21
-10.801980359400726
31
0
0
LINE
5
514
100
AcDbEntity
8
0
100
AcDbLine
10
18.986246887620066
20
-12.112760159400713
30
0
11
18.898687575120064
21
-12.116791934400721
31
0
0
LINE
5
515
100
AcDbEntity
8
0
100
AcDbLine
10
16.736950800120066
20
-10.69565064690072
30
0
11
16.672561200120079
21
-10.622195121900715
31
0
0
LINE
5
516
100
AcDbEntity
8
0
100
AcDbLine
10
20.08861436262006
20
-14.024233596900697
30
0
11
20.046637125120064
21
-13.605994484400714
31
0
0
LINE
5
517
100
AcDbEntity
8
0
100
AcDbLine
10
19.139443200120077
20
-16.9848001344007
30
0
11
19.158896700120074
21
-16.867102746900702
31
0
0
LINE
5
518
100
AcDbEntity
8
0
100
AcDbLine
10
18.826104487620064
20
-12.120463596900727
30
0
11
18.770925600120073
21
-12.123660059400725
31
0
0
LINE
5
519
100
AcDbEntity
8
0
100
AcDbLine
10
19.345713412620064
20
-13.207776884400708
30
0
11
19.349399925120053
21
-13.19443787190071
31
0
0
LINE
5
520
100
AcDbEntity
8
0
100
AcDbLine
10
18.735582600120075
20
-12.126266234400722
30
0
11
18.722496037620079
21
-12.128163321900715
31
0
0
LINE
5
521
100
AcDbEntity
8
0
100
AcDbLine
10
19.158896700120074
20
-16.867102746900702
30
0
11
19.166514750120072
21
-16.801584546900699
31
0
0
LINE
5
522
100
AcDbEntity
8
0
100
AcDbLine
10
19.19883206262007
20
-16.176577746900698
30
0
11
19.217754675120069
21
-16.105954859400708
31
0
0
LINE
5
523
100
AcDbEntity
8
0
100
AcDbLine
10
16.798374112620071
20
-9.1508199969007205
30
0
11
16.91030227512006
21
-9.0862373469007309
31
0
0
LINE
5
524
100
AcDbEntity
8
0
100
AcDbLine
10
16.327194750120078
20
-9.4180828719007224
30
0
11
16.299028012620074
21
-9.5071160469007268
31
0
0
LINE
5
525
100
AcDbEntity
8
0
100
AcDbLine
10
17.26441166262007
20
-9.9226450344007215
30
0
11
17.26441166262007
21
-10.032497909400714
31
0
0
LINE
5
526
100
AcDbEntity
8
0
100
AcDbLine
10
17.222946750120084
20
-9.0466249719007301
30
0
11
17.317092037620068
21
-9.049513296900729
31
0
0
LINE
5
527
100
AcDbEntity
8
0
100
AcDbLine
10
16.360830000120082
20
-9.3362148219007128
30
0
11
16.327194750120078
21
-9.4180828719007224
31
0
0
LINE
5
528
100
AcDbEntity
8
0
100
AcDbLine
10
20.381708812620065
20
-16.899360659400696
30
0
11
20.378181937620067
21
-16.868517209400697
31
0
0
LINE
5
529
100
AcDbEntity
8
0
100
AcDbLine
10
16.516428300120069
20
-9.6475116594007204
30
0
11
16.559834850120069
21
-9.4936693719007383
31
0
0
LINE
5
530
100
AcDbEntity
8
0
100
AcDbLine
10
16.510039087620068
20
-10.185126209400721
30
0
11
16.49042223762007
21
-9.9962824719007255
31
0
0
LINE
5
531
100
AcDbEntity
8
0
100
AcDbLine
10
17.892162000120081
20
-9.0089356719007228
30
0
11
17.711682525120061
21
-8.9262285969007209
31
0
0
LINE
5
532
100
AcDbEntity
8
0
100
AcDbLine
10
16.275847162620074
20
-9.6043389969007276
30
0
11
16.257184425120069
21
-9.7107615219007197
31
0
0
LINE
5
533
100
AcDbEntity
8
0
100
AcDbLine
10
19.179129825120064
20
-16.498299284400694
30
0
11
19.180922962620059
21
-16.395229146900693
31
0
0
LINE
5
534
100
AcDbEntity
8
0
100
AcDbLine
10
20.392538175120066
20
-16.986552434400696
30
0
11
20.381705100120058
21
-16.899364371900703
31
0
0
LINE
5
535
100
AcDbEntity
8
0
100
AcDbLine
10
20.378181937620067
20
-16.868517209400697
30
0
11
20.372290200120062
21
-16.813898909400706
31
0
0
LINE
5
536
100
AcDbEntity
8
0
100
AcDbLine
10
17.488216012620068
20
-9.0705074844007392
30
0
11
17.55481455012006
21
-9.0885762219007269
31
0
0
LINE
5
537
100
AcDbEntity
8
0
100
AcDbLine
10
19.981961662620058
20
-16.977831771900696
30
0
11
20.392538175120066
21
-16.986552434400696
31
0
0
LINE
5
538
100
AcDbEntity
8
0
100
AcDbLine
10
16.968488287620072
20
-9.0686215344007302
30
0
11
17.043451087620063
21
-9.0561586719007288
31
0
0
LINE
5
539
100
AcDbEntity
8
0
100
AcDbLine
10
17.892162000120081
20
-9.2980837344007288
30
0
11
17.892162000120081
21
-9.1535152719007247
31
0
0
LINE
5
540
100
AcDbEntity
8
0
100
AcDbLine
10
17.043451087620063
20
-9.0561586719007288
30
0
11
17.130004312620073
21
-9.0488339094007273
31
0
0
ARC
5
541
100
AcDbEntity
8
0
100
AcDbCircle
10
17.264582112479971
20
-9.882419036794186
30
0
40
0.84523445422940313
210
0
220
-0
230
1
100
AcDbArc
50
52.222623151549044
51
69.917364642329858
0
LINE
5
542
100
AcDbEntity
8
0
100
AcDbLine
10
17.782368525120059
20
-9.2143482969007309
30
0
11
17.892162000120081
21
-9.2980837344007288
31
0
0
LINE
5
543
100
AcDbEntity
8
0
100
AcDbLine
10
17.274164400120071
20
-8.8299671844007257
30
0
11
17.017118325120073
21
-8.8164128469007288
31
0
0
LINE
5
544
100
AcDbEntity
8
0
100
AcDbLine
10
16.91030227512006
20
-9.0862373469007309
30
0
11
16.968488287620072
21
-9.0686215344007302
31
0
0
LINE
5
545
100
AcDbEntity
8
0
100
AcDbLine
10
16.853211450120067
20
-8.8751705844007347
30
0
11
16.689293437620076
21
-8.9339394594007224
31
0
0
LINE
5
546
100
AcDbEntity
8
0
100
AcDbLine
10
16.689293437620076
20
-8.9339394594007224
30
0
11
16.559478450120071
21
-9.0599862594007181
31
0
0
LINE
5
547
100
AcDbEntity
8
0
100
AcDbLine
10
17.711682525120061
20
-8.9262285969007209
30
0
11
17.531210475120076
21
-8.8435215219007208
31
0
0
LINE
5
548
100
AcDbEntity
8
0
100
AcDbLine
10
16.492920750120078
20
-9.8160628719007157
30
0
11
16.516428300120069
21
-9.6475116594007204
31
0
0
LINE
5
549
100
AcDbEntity
8
0
100
AcDbLine
10
17.130004312620073
20
-9.0488339094007273
30
0
11
17.222946750120084
21
-9.0466249719007301
31
0
0
LINE
5
550
100
AcDbEntity
8
0
100
AcDbLine
10
17.531210475120076
20
-8.8435215219007208
30
0
11
17.274164400120071
21
-8.8299671844007257
31
0
0
LINE
5
551
100
AcDbEntity
8
0
100
AcDbLine
10
17.954940375120088
20
-9.9226450344007215
30
0
11
17.609681587620067
21
-9.9226450344007215
31
0
0
LINE
5
552
100
AcDbEntity
8
0
100
AcDbLine
10
16.559478450120071
20
-9.0599862594007181
30
0
11
16.446384562620082
21
-9.1898903469007269
31
0
0
LINE
5
553
100
AcDbEntity
8
0
100
AcDbLine
10
16.257184425120069
20
-9.7107615219007197
30
0
11
16.22102838762007
21
-9.9538671594007155
31
0
0
LINE
5
554
100
AcDbEntity
8
0
100
AcDbLine
10
16.49042223762007
20
-9.9962824719007255
30
0
11
16.492920750120078
21
-9.8160628719007157
31
0
0
LINE
5
555
100
AcDbEntity
8
0
100
AcDbLine
10
16.622034075120073
20
-9.3575765469007219
30
0
11
16.701919650120061
21
-9.2422811469007176
31
0
0
LINE
5
556
100
AcDbEntity
8
0
100
AcDbLine
10
16.701919650120061
20
-9.2422811469007176
30
0
11
16.798374112620071
21
-9.1508199969007205
31
0
0
LINE
5
557
100
AcDbEntity
8
0
100
AcDbLine
10
17.892162000120081
20
-9.1535152719007247
30
0
11
17.892162000120081
21
-9.0089356719007228
31
0
0
LINE
5
558
100
AcDbEntity
8
0
100
AcDbLine
10
16.446384562620082
20
-9.1898903469007269
30
0
11
16.360830000120082
21
-9.3362148219007128
31
0
0
LINE
5
559
100
AcDbEntity
8
0
100
AcDbLine
10
17.017118325120073
20
-8.8164128469007288
30
0
11
16.853211450120067
21
-8.8751705844007347
31
0
0
LINE
5
560
100
AcDbEntity
8
0
100
AcDbLine
10
17.609681587620067
20
-9.9226450344007215
30
0
11
17.26441166262007
21
-9.9226450344007215
31
0
0
LINE
5
561
100
AcDbEntity
8
0
100
AcDbLine
10
17.317092037620068
20
-9.049513296900729
30
0
11
17.407246387620074
21
-9.0574803219007158
31
0
0
LINE
5
562
100
AcDbEntity
8
0
100
AcDbLine
10
17.407246387620074
20
-9.0574803219007158
30
0
11
17.488216012620068
21
-9.0705074844007392
31
0
0
LINE
5
563
100
AcDbEntity
8
0
100
AcDbLine
10
16.299028012620074
20
-9.5071160469007268
30
0
11
16.275847162620074
21
-9.6043389969007276
31
0
0
LINE
5
564
100
AcDbEntity
8
0
100
AcDbLine
10
16.559834850120069
20
-9.4936693719007383
30
0
11
16.622034075120073
21
-9.3575765469007219
31
0
0
LWPOLYLINE
5
565
100
AcDbEntity
8
0
100
AcDbPolyline
90
71
70
1
43
0.0
10
41.639784525119993
20
-10.382731446900726
10
41.471340975120007
20
-10.513066184400742
10
41.452366387619975
20
-10.398331371900733
10
41.444971087619976
20
-10.330871534400721
10
41.438864025119997
20
-10.232015084400729
10
41.434680037619998
20
-10.115045346900729
10
41.433046537620001
20
-9.9932642094007278
10
41.432701275119975
20
-9.7029281469007298
10
41.346385650120006
20
-9.7031991594007287
42
0.029102502000039755
10
41.095287000120003
20
-9.7232689344007355
10
40.93050397511999
20
-9.7430639844007327
10
40.93050397511999
20
-10.502448434400726
10
40.930077037619988
20
-10.655421996900746
10
40.928851912619997
20
-10.798954671900734
10
40.926917700119994
20
-10.929853709400735
10
40.924356075120002
20
-11.044911509400723
10
40.921256137619991
20
-11.140935321900731
10
40.91770327511999
20
-11.21471754690074
10
40.913782875120006
20
-11.263058009400728
10
40.90958032511999
20
-11.282760246900736
10
40.887223650119999
20
-11.286962796900728
10
40.831283700120011
20
-11.290886909400733
10
40.745484112619998
20
-11.294439771900729
10
40.633567087619994
20
-11.297539709400732
10
40.499259975119998
20
-11.300101334400733
10
40.346297550119992
20
-11.302035546900733
10
40.178414587619997
20
-11.303260671900732
10
39.99934586261999
20
-11.303687609400733
10
39.110035050120004
20
-11.303687609400733
10
39.11025408762
20
-11.154597321900727
10
39.119156662620007
20
-11.017082609400736
10
39.144383100120017
20
-10.865122559400728
10
39.184303612619999
20
-10.703387496900742
10
39.23727356261999
20
-10.536536609400734
10
39.301655737619996
20
-10.369243934400728
10
39.375809212619984
20
-10.206168659400737
10
39.458096775119998
20
-10.051981109400732
10
39.546884925119976
20
-9.9113478969007236
10
39.609600187620003
20
-9.8281581969007288
10
39.686033137619994
20
-9.7390767594007226
10
39.773017012620002
20
-9.6470661594007385
10
39.867396187620002
20
-9.5550926844007336
10
40.065691950119991
20
-9.3831036969007222
10
40.255623450119991
20
-9.2468252469007322
42
-0.096538353999989446
10
41.190787350120019
20
-8.898845196900723
10
41.479783200120004
20
-8.8485259719007416
10
41.754935137619967
20
-8.8688556219007388
42
-0.05207956600000576
10
42.304218075119977
20
-8.9685807969007278
10
42.528690675119989
20
-9.0472783719007293
10
42.757005712619986
20
-9.1471631844007266
10
42.854592487619982
20
-9.1964057844007421
10
42.931519200119979
20
-9.2405696844007288
10
42.980583600119985
20
-9.2761985469007229
10
42.99457601261998
20
-9.2998360344007303
10
42.72413523761999
20
-9.5285297469007428
10
42.441027412620002
20
-9.7343173344007301
10
42.420293100119977
20
-9.7219324344007276
10
42.380094150120001
20
-9.6882155094007345
10
42.326222062619991
20
-9.6383157969007307
10
42.264468337619974
20
-9.5773788219007301
10
42.202915087619964
20
-9.5164455594007311
10
42.149592450119997
20
-9.4665421344007257
10
42.110210250119991
20
-9.4328252094007237
10
42.09047088762
20
-9.4204440219007282
10
42.083888625119968
20
-9.428934509400726
10
42.072561787619989
20
-9.4532662344007328
10
42.05711036261998
20
-9.4917351594007329
10
42.038154337619986
20
-9.542637246900739
10
41.992201012620001
20
-9.6749024844007323
10
41.939646862619981
20
-9.8364185094007244
10
41.808235500119999
20
-10.252392996900728
0
LWPOLYLINE
5
566
100
AcDbEntity
8
0
100
AcDbPolyline
90
28
70
1
43
0.0
10
33.523082662620027
20
-8.8671515844007214
10
33.523082662620027
20
-8.7613082094007293
10
32.911025062620041
20
-8.7613082094007293
10
32.298971175120023
20
-8.7613082094007293
10
32.298971175120023
20
-9.8598666594007263
10
32.298971175120023
20
-10.958421396900722
10
32.926725225120038
20
-10.958421396900722
10
33.554471850120024
20
-10.958421396900722
10
33.554471850120024
20
-10.848572234400727
10
33.554471850120024
20
-10.73871193440073
10
33.052274550120018
20
-10.73871193440073
10
32.550069825120012
20
-10.73871193440073
10
32.550069825120012
20
-10.33494043440073
10
32.550069825120012
20
-9.9311763594007267
10
32.695696350120038
20
-9.9112105344007286
10
32.777898525120015
20
-9.9034625469007338
10
32.894066362620009
20
-9.8971178844007213
10
33.028752150120013
20
-9.8928299469007221
10
33.166508175120022
20
-9.8912521344007249
10
33.491693475120023
20
-9.8912558469007212
10
33.491693475120023
20
-9.7813955469007272
10
33.491693475120023
20
-9.6715463844007292
10
33.005192625120031
20
-9.6715463844007292
10
32.518684350120012
20
-9.6715463844007292
10
32.518684350120012
20
-9.3450245844007256
10
32.518684350120012
20
-9.0185102094007323
10
33.020885362620021
20
-8.9957488719007284
10
33.523082662620027
20
-8.9729912469007296
0
LINE
5
567
100
AcDbEntity
8
0
100
AcDbLine
10
17.954940375120081
20
-10.375622009400713
30
0
11
17.954940375120088
21
-9.9226450344007215
31
0
0
LINE
5
568
100
AcDbEntity
8
0
100
AcDbLine
10
27.113299200120036
20
-10.279720709400731
30
0
11
27.065226037620029
21
-10.141489484400736
31
0
0
LINE
5
569
100
AcDbEntity
8
0
100
AcDbLine
10
27.112979925120033
20
-10.974121559400727
30
0
11
27.252915187620044
21
-10.983484484400732
31
0
0
LINE
5
570
100
AcDbEntity
8
0
100
AcDbLine
10
27.188610975120042
20
-10.493419634400723
30
0
11
27.154882912620035
21
-10.398331371900724
31
0
0
LINE
5
571
100
AcDbEntity
8
0
100
AcDbLine
10
26.503866337620032
20
-9.2128447344007309
30
0
11
26.558885587620029
21
-9.3726084594007268
31
0
0
LINE
5
572
100
AcDbEntity
8
0
100
AcDbLine
10
26.955035325120036
20
-9.8217355719007227
30
0
11
26.895635325120036
21
-9.6480017094007202
31
0
0
LINE
5
573
100
AcDbEntity
8
0
100
AcDbLine
10
26.688381300120039
20
-9.7476711969007219
30
0
11
26.759780100120054
21
-9.9540305094007149
31
0
0
LINE
5
574
100
AcDbEntity
8
0
100
AcDbLine
10
26.759780100120054
20
-9.9540305094007149
30
0
11
27.112979925120033
21
-10.974121559400727
31
0
0
LINE
5
575
100
AcDbEntity
8
0
100
AcDbLine
10
27.227072475120039
20
-10.597473584400722
30
0
11
27.213124612620039
21
-10.561098509400715
31
0
0
LINE
5
576
100
AcDbEntity
8
0
100
AcDbLine
10
27.065226037620029
20
-10.141489484400736
30
0
11
27.012018487620033
21
-9.9875321094007301
31
0
0
LINE
5
577
100
AcDbEntity
8
0
100
AcDbLine
10
27.252915187620044
20
-10.983484484400732
30
0
11
27.392835600120033
21
-10.99285483440072
31
0
0
LINE
5
578
100
AcDbEntity
8
0
100
AcDbLine
10
27.154882912620035
20
-10.398331371900724
30
0
11
27.113299200120036
21
-10.279720709400731
31
0
0
LINE
5
579
100
AcDbEntity
8
0
100
AcDbLine
10
26.620902900120029
20
-9.5523751344007337
30
0
11
26.688381300120039
21
-9.7476711969007219
31
0
0
LINE
5
580
100
AcDbEntity
8
0
100
AcDbLine
10
26.457382125120045
20
-9.0775612344007399
30
0
11
26.503866337620032
21
-9.2128447344007309
31
0
0
LINE
5
581
100
AcDbEntity
8
0
100
AcDbLine
10
27.266848200120037
20
-10.691633721900724
30
0
11
27.227072475120039
21
-10.597473584400722
31
0
0
LINE
5
582
100
AcDbEntity
8
0
100
AcDbLine
10
27.213124612620039
20
-10.561098509400715
30
0
11
27.188610975120042
21
-10.493419634400723
31
0
0
LINE
5
583
100
AcDbEntity
8
0
100
AcDbLine
10
27.012018487620033
20
-9.9875321094007301
30
0
11
26.955035325120036
21
-9.8217355719007227
31
0
0
LINE
5
584
100
AcDbEntity
8
0
100
AcDbLine
10
26.558885587620029
20
-9.3726084594007268
30
0
11
26.620902900120029
21
-9.5523751344007337
31
0
0
LINE
5
585
100
AcDbEntity
8
0
100
AcDbLine
10
26.603985037620038
20
-8.7926973969007278
30
0
11
26.483258250120052
21
-8.7926973969007278
31
0
0
LINE
5
586
100
AcDbEntity
8
0
100
AcDbLine
10
27.392835600120033
20
-10.99285483440072
30
0
11
27.758680200120036
21
-9.916315221900728
31
0
0
LINE
5
587
100
AcDbEntity
8
0
100
AcDbLine
10
28.017051637620032
20
-9.1490936844007322
30
0
11
28.061813250120036
21
-9.013877009400721
31
0
0
LINE
5
588
100
AcDbEntity
8
0
100
AcDbLine
10
27.884812387620038
20
-8.7926973969007278
30
0
11
27.575832150120021
21
-9.742161846900725
31
0
0
LINE
5
589
100
AcDbEntity
8
0
100
AcDbLine
10
26.895635325120036
20
-9.6480017094007202
30
0
11
26.603985037620038
21
-8.7926973969007278
31
0
0
LWPOLYLINE
5
590
100
AcDbEntity
8
0
100
AcDbPolyline
90
13
70
1
43
0.0
10
29.275087950120025
20
-10.542539721900681
10
29.295547537620045
20
-10.989810584400722
10
29.887023037620025
20
-10.989810584400722
10
30.478505962620027
20
-10.989810584400722
10
30.478505962620027
20
-10.859743146900724
10
30.478505962620027
20
-10.729664571900715
10
29.992005112620028
20
-10.751917296900729
10
29.505496837620029
20
-10.774170021900725
10
29.505496837620029
20
-9.7834374219007394
10
29.505496837620029
20
-8.7926973969007278
10
29.379947512620035
20
-8.7926973969007278
10
29.254398187620048
20
-8.7926973969007278
10
29.254513275120026
20
-9.4439812719007286
42
0.011385443999984113
0
LINE
5
591
100
AcDbEntity
8
0
100
AcDbLine
10
27.575832150120021
20
-9.742161846900725
30
0
11
27.266848200120037
21
-10.691633721900724
31
0
0
LINE
5
592
100
AcDbEntity
8
0
100
AcDbLine
10
28.061813250120036
20
-9.013877009400721
30
0
11
28.095637837620025
21
-8.9103205344007286
31
0
0
LINE
5
593
100
AcDbEntity
8
0
100
AcDbLine
10
28.051158375120046
20
-8.7945536469007397
30
0
11
28.004637037620039
21
-8.7926936844007404
31
0
0
LWPOLYLINE
5
594
100
AcDbEntity
8
0
100
AcDbPolyline
90
9
70
1
43
0.0
10
28.730735212620033
20
-10.989810584400722
10
28.710167962620034
20
-10.401297659400598
42
-0.0086895497999813741
10
28.689511612620034
20
-9.3027429219007303
10
28.689422512620034
20
-8.7926973969007278
10
28.579569637620033
20
-8.7926973969007278
10
28.469705625120042
20
-8.7926973969007278
10
28.469705625120042
20
-9.8912558469007212
10
28.469705625120042
20
-10.989810584400722
10
28.600225987620036
20
-10.989810584400722
0
LINE
5
595
100
AcDbEntity
8
0
100
AcDbLine
10
28.122598012620035
20
-8.8242202344007303
30
0
11
28.124491387620036
21
-8.81623464690073
31
0
0
LINE
5
596
100
AcDbEntity
8
0
100
AcDbLine
10
28.089267187620031
20
-8.7996100719007408
30
0
11
28.051158375120046
21
-8.7945536469007397
31
0
0
LINE
5
597
100
AcDbEntity
8
0
100
AcDbLine
10
28.095637837620025
20
-8.9103205344007286
30
0
11
28.107981900120031
21
-8.8718256219007419
31
0
0
LINE
5
598
100
AcDbEntity
8
0
100
AcDbLine
10
28.124491387620036
20
-8.81623464690073
30
0
11
28.115020800120032
21
-8.8070944719007276
31
0
0
LINE
5
599
100
AcDbEntity
8
0
100
AcDbLine
10
27.758683912620032
20
-9.916315221900728
30
0
11
27.832172850120042
21
-9.6995831844007299
31
0
0
LINE
5
600
100
AcDbEntity
8
0
100
AcDbLine
10
27.832172850120042
20
-9.6995831844007299
30
0
11
27.900731587620029
21
-9.4964574594007303
31
0
0
LINE
5
601
100
AcDbEntity
8
0
100
AcDbLine
10
27.900731587620029
20
-9.4964574594007303
30
0
11
27.962860275120033
21
-9.3114598719007411
31
0
0
LINE
5
602
100
AcDbEntity
8
0
100
AcDbLine
10
27.962860275120033
20
-9.3114598719007411
30
0
11
28.017051637620032
21
-9.1490936844007322
31
0
0
LINE
5
603
100
AcDbEntity
8
0
100
AcDbLine
10
28.117032975120033
20
-8.8429386594007404
30
0
11
28.122598012620035
21
-8.8242202344007303
31
0
0
LINE
5
604
100
AcDbEntity
8
0
100
AcDbLine
10
28.107981900120031
20
-8.8718256219007419
30
0
11
28.117032975120033
21
-8.8429386594007404
31
0
0
LINE
5
605
100
AcDbEntity
8
0
100
AcDbLine
10
28.004637037620039
20
-8.7926936844007404
30
0
11
27.884812387620038
21
-8.7926973969007278
31
0
0
LINE
5
606
100
AcDbEntity
8
0
100
AcDbLine
10
28.115020800120032
20
-8.8070944719007276
30
0
11
28.089267187620031
21
-8.7996100719007408
31
0
0
LINE
5
607
100
AcDbEntity
8
0
100
AcDbLine
10
-53.974999999802236
20
22.769364479860329
30
0
11
-53.974999999999994
21
28.574999999999999
31
0
0
LINE
5
608
100
AcDbEntity
8
0
100
AcDbLine
10
-44.35782230859661
20
28.574998662529222
30
0
11
-53.974999999999994
21
28.574999999999999
31
0
0
LINE
5
609
100
AcDbEntity
8
0
100
AcDbLine
10
-42.824178388567198
20
28.574999998911203
30
0
11
-32.114045018722123
21
28.574999999617123
31
0
0
LINE
5
610
100
AcDbEntity
8
0
100
AcDbLine
10
-30.594757074950991
20
28.574999996413002
30
0
11
-19.984418175170681
21
28.57499999089335
31
0
0
LINE
5
611
100
AcDbEntity
8
0
100
AcDbLine
10
-39.032194136887938
20
20.574999999755235
30
0
11
-45.959751032254417
21
20.574999999996393
31
0
0
LINE
5
612
100
AcDbEntity
8
0
100
AcDbLine
10
-53.975000047051019
20
21.566414263333591
30
0
11
-53.975000254745922
21
12.091528225338205
31
0
0
LINE
5
613
100
AcDbEntity
8
0
100
AcDbLine
10
-45.974998387983952
20
13.928576526413552
30
0
11
-45.974999999999973
21
20.555690626904614
31
0
0
LINE
5
614
100
AcDbEntity
8
0
100
AcDbLine
10
-53.974999999561639
20
10.911034419423199
30
0
11
-53.974999980076497
21
5.6539495091981076
31
0
0
LINE
5
615
100
AcDbEntity
8
0
100
AcDbLine
10
-45.975000000006183
20
12.070516444524326
30
0
11
-45.97500010000207
21
3.6657054860488056
31
0
0
LINE
5
616
100
AcDbEntity
8
0
100
AcDbLine
10
-53.975000000594093
20
4.5137520273198408
30
0
11
-53.974999999996591
21
-3.9659269676022326
31
0
0
LINE
5
617
100
AcDbEntity
8
0
100
AcDbLine
10
-45.97500092470024
20
-6.4080173665813343
30
0
11
-45.975000643868896
21
-9.2646035401581255
31
0
0
LINE
5
618
100
AcDbEntity
8
0
100
AcDbLine
10
-53.974999999949432
20
-5.16212312293497
30
0
11
-53.974999999992335
21
-12.690297608428429
31
0
0
LINE
5
619
100
AcDbEntity
8
0
100
AcDbLine
10
-53.974999999989194
20
-13.861249080840249
30
0
11
-53.974999999983417
21
-21.733570512062734
31
0
0
LINE
5
620
100
AcDbEntity
8
0
100
AcDbLine
10
-45.975000007632431
20
-16.794982512160775
30
0
11
-45.975000000047991
21
-18.992395574062549
31
0
0
LINE
5
621
100
AcDbEntity
8
0
100
AcDbLine
10
-53.974999999981094
20
-22.909442854395632
30
0
11
-53.974999999999994
21
-28.574999999999999
31
0
0
LINE
5
622
100
AcDbEntity
8
0
100
AcDbLine
10
-46.285498014643949
20
-28.57499999998694
30
0
11
-53.974999999999994
21
-28.574999999999999
31
0
0
LINE
5
623
100
AcDbEntity
8
0
100
AcDbLine
10
-45.413406189316007
20
-20.575000141690865
30
0
11
-36.782871297761879
21
-20.57500000001458
31
0
0
LINE
5
624
100
AcDbEntity
8
0
100
AcDbLine
10
-36.72574847652848
20
-28.574999998055375
30
0
11
-27.386228678214767
21
-28.575000001238521
31
0
0
LINE
5
625
100
AcDbEntity
8
0
100
AcDbLine
10
-35.603070131974846
20
-20.574999981070036
30
0
11
-26.22492486214087
21
-20.575000055500151
31
0
0
LINE
5
626
100
AcDbEntity
8
0
100
AcDbLine
10
-23.887755715876089
20
-20.574999996785756
30
0
11
-18.296228657210218
21
-20.57499791833132
31
0
0
LINE
5
627
100
AcDbEntity
8
0
100
AcDbLine
10
-26.132686049088555
20
-28.574999242132982
30
0
11
-17.4986973340825
21
-28.574999998400365
31
0
0
LINE
5
628
100
AcDbEntity
8
0
100
AcDbLine
10
-16.685643621102582
20
-20.575000129360042
30
0
11
-8.6080650191529156
21
-20.575000087683435
31
0
0
LINE
5
629
100
AcDbEntity
8
0
100
AcDbLine
10
-7.5425673191932594
20
-20.574999988377343
30
0
11
0.58239300834468288
21
-20.574999967189914
31
0
0
LINE
5
630
100
AcDbEntity
8
0
100
AcDbLine
10
-7.6504522050558599
20
-28.574999999995217
30
0
11
2.4541105886295353
21
-28.575000490638935
31
0
0
LINE
5
631
100
AcDbEntity
8
0
100
AcDbLine
10
1.7787713810984322
20
-20.575000000260431
30
0
11
10.721046840655033
21
-20.575000000114585
31
0
0
LINE
5
632
100
AcDbEntity
8
0
100
AcDbLine
10
12.773699451787675
20
-28.574999910333965
30
0
11
19.760893385979113
21
-28.574999994904928
31
0
0
SPLINE
5
633
100
AcDbEntity
8
0
100
AcDbSpline
70
4
71
3
72
8
73
4
74
0
42
0.000000001
43
0.0000000001
44
0.0000000001
40
0
40
0
40
0
40
0
40
0.1430696457241204
40
0.1430696457241204
40
0.1430696457241204
40
0.1430696457241204
41
1
41
1
41
1
41
1
10
15.465061633728823
20
-20.742481919391356
30
0
10
15.922040980165932
20
-20.675874957606265
30
0
10
16.313640453405043
20
-20.618797430246524
30
0
10
16.653461646798728
20
-20.575000374148225
30
0
0
SPLINE
5
634
100
AcDbEntity
8
0
100
AcDbSpline
70
4
71
3
72
8
73
4
74
0
42
0.000000001
43
0.0000000001
44
0.0000000001
40
0.52093349290371604
40
0.52093349290371604
40
0.52093349290371604
40
0.52093349290371604
40
1
40
1
40
1
40
1
41
1
41
1
41
1
41
1
10
18.513030444356961
20
-20.57500062003367
30
0
10
19.052786292414204
20
-20.750859384524514
30
0
10
19.414771869955839
20
-21.186703408025185
30
0
10
20.109650549235809
20
-22.02336303816578
30
0
0
LINE
5
635
100
AcDbEntity
8
0
100
AcDbLine
10
16.653461646798732
20
-20.575000374148221
30
0
11
18.513030444356961
21
-20.57500062003367
31
0
0
LINE
5
636
100
AcDbEntity
8
0
100
AcDbLine
10
20.534903308352437
20
-20.574999998958962
30
0
11
28.551045489687567
21
-20.574999915934605
31
0
0
LINE
5
637
100
AcDbEntity
8
0
100
AcDbLine
10
21.250083573036591
20
-28.57500002616565
30
0
11
31.068422564142644
21
-28.57499999365448
31
0
0
LINE
5
638
100
AcDbEntity
8
0
100
AcDbLine
10
29.781462628619199
20
-20.575000000189974
30
0
11
37.688941679888174
21
-20.575000089638394
31
0
0
LINE
5
639
100
AcDbEntity
8
0
100
AcDbLine
10
40.628773498007433
20
-28.574999999295304
30
0
11
49.755305481893686
21
-28.57521199014128
31
0
0
SPLINE
5
640
100
AcDbEntity
8
0
100
AcDbSpline
70
4
71
3
72
8
73
4
74
0
42
0.000000001
43
0.0000000001
44
0.0000000001
40
0
40
0
40
0
40
0
40
0.9053838108667478
40
0.9053838108667478
40
0.9053838108667478
40
0.9053838108667478
41
1
41
1
41
1
41
1
10
42.891746712667604
20
-22.001319810016362
30
0
10
40.41295655622045
20
-22.813973537996478
30
0
10
40.178422877956415
20
-22.890863736822883
30
0
10
38.81408368846234
20
-20.574999999652373
30
0
0
LINE
5
641
100
AcDbEntity
8
0
100
AcDbLine
10
38.81408368846234
20
-20.574999999652373
30
0
11
45.623484399806166
21
-20.574999883260993
31
0
0
LINE
5
642
100
AcDbEntity
8
0
100
AcDbLine
10
45.974999106098451
20
-15.825202626654807
30
0
11
45.974999999999461
21
-19.685598249007839
31
0
0
SPLINE
5
643
100
AcDbEntity
8
0
100
AcDbSpline
70
4
71
3
72
8
73
4
74
0
42
0.000000001
43
0.0000000001
44
0.0000000001
40
0
40
0
40
0
40
0
40
0.16470896576574129
40
0.16470896576574129
40
0.16470896576574129
40
0.16470896576574129
41
1
41
1
41
1
41
1
10
46.243270175598923
20
-18.663498676084878
30
0
10
46.142189941724567
20
-19.065428391902991
30
0
10
46.057758528631012
20
-19.401156679918188
30
0
10
45.974999999999461
20
-19.685598249007839
30
0
0
SPLINE
5
644
100
AcDbEntity
8
0
100
AcDbSpline
70
4
71
3
72
8
73
4
74
0
42
0.000000001
43
0.0000000001
44
0.0000000001
40
0.38112077116575993
40
0.38112077116575993
40
0.38112077116575993
40
0.38112077116575993
40
1
40
1
40
1
40
1
41
1
41
1
41
1
41
1
10
45.623484399806166
20
-20.574999883260993
30
0
10
45.231901594810665
20
-21.234116670985731
30
0
10
44.586135017441123
20
-21.445826651816262
30
0
10
42.891746712667604
20
-22.001319810016362
30
0
0
LINE
5
645
100
AcDbEntity
8
0
100
AcDbLine
10
53.974999999986757
20
-15.985580017113604
30
0
11
53.97499999999048
21
-24.819918600646602
31
0
0
LINE
5
646
100
AcDbEntity
8
0
100
AcDbLine
10
45.975000000074964
20
-14.569589841508456
30
0
11
45.975000000004087
21
-5.2855229743009069
31
0
0
LINE
5
647
100
AcDbEntity
8
0
100
AcDbLine
10
53.97499991763106
20
1.6265017360400946
30
0
11
53.974999999992534
21
-5.9574315865463614
31
0
0
SPLINE
5
648
100
AcDbEntity
8
0
100
AcDbSpline
70
4
71
3
72
8
73
4
74
0
42
0.000000001
43
0.0000000001
44
0.0000000001
40
0.035697479368059039
40
0.035697479368059039
40
0.035697479368059039
40
0.035697479368059039
40
1
40
1
40
1
40
1
41
1
41
1
41
1
41
1
10
53.974999999992534
20
-5.9574315865463614
30
0
10
51.691247247574296
20
-7.3018276236044422
30
0
10
51.604363234618056
20
-7.24354111449522
30
0
10
49.170465533875273
20
-5.6107505045964601
30
0
0
SPLINE
5
649
100
AcDbEntity
8
0
100
AcDbSpline
70
4
71
3
72
8
73
4
74
0
42
0.000000001
43
0.0000000001
44
0.0000000001
40
0
40
0
40
0
40
0
40
0.97110895636085248
40
0.97110895636085248
40
0.97110895636085248
40
0.97110895636085248
41
1
41
1
41
1
41
1
10
49.037358348511489
20
1.495800538596086
30
0
10
51.468910982846687
20
3.0708374029257133
30
0
10
51.539161076116152
20
3.1163418617063265
30
0
10
53.974999917631067
20
1.6265017360400891
30
0
0
LINE
5
650
100
AcDbEntity
8
0
100
AcDbLine
10
45.975000000711894
20
10.950529081283246
30
0
11
45.974999999999888
21
1.1706666420958827
31
0
0
LINE
5
651
100
AcDbEntity
8
0
100
AcDbLine
10
53.974999983284363
20
19.580845938827878
30
0
11
53.974999999983957
21
10.8709848300928
31
0
0
LINE
5
652
100
AcDbEntity
8
0
100
AcDbLine
10
45.974999921864097
20
12.180601380221344
30
0
11
45.974999999999994
21
20.575000000000003
31
0
0
LINE
5
653
100
AcDbEntity
8
0
100
AcDbLine
10
42.971622234640904
20
20.574999999580051
30
0
11
45.974999999999994
21
20.575000000000003
31
0
0
LINE
5
654
100
AcDbEntity
8
0
100
AcDbLine
10
53.974999999524528
20
20.779002901267766
30
0
11
53.974999999999994
21
28.574999999999999
31
0
0
LINE
5
655
100
AcDbEntity
8
0
100
AcDbLine
10
48.013191133899738
20
28.574999999090434
30
0
11
53.974999999999994
21
28.574999999999999
31
0
0
LINE
5
656
100
AcDbEntity
8
0
100
AcDbLine
10
37.174076698145917
20
28.574999367838025
30
0
11
46.566623558194635
21
28.574999999625661
31
0
0
LINE
5
657
100
AcDbEntity
8
0
100
AcDbLine
10
38.23030173011756
20
20.574996867641318
30
0
11
31.804371109863915
21
20.574999999938356
31
0
0
LINE
5
658
100
AcDbEntity
8
0
100
AcDbLine
10
25.971480340094825
20
28.574999882302791
30
0
11
35.774007270149454
21
28.574999689665344
31
0
0
LINE
5
659
100
AcDbEntity
8
0
100
AcDbLine
10
29.017233532573805
20
20.574999999959775
30
0
11
21.259883810850091
21
20.574999999956518
31
0
0
LINE
5
660
100
AcDbEntity
8
0
100
AcDbLine
10
24.644996916373579
20
28.574999989170081
30
0
11
15.337124240481794
21
28.574999991741752
31
0
0
LINE
5
661
100
AcDbEntity
8
0
100
AcDbLine
10
8.7198763905257
20
20.575000083873146
30
0
11
12.214521804308633
21
20.575000006751907
31
0
0
LINE
5
662
100
AcDbEntity
8
0
100
AcDbLine
10
13.847358953477862
20
28.574999976314103
30
0
11
5.0031891080407531
21
28.57499999979256
31
0
0
SPLINE
5
663
100
AcDbEntity
8
0
100
AcDbSpline
70
4
71
3
72
8
73
4
74
0
42
0.000000001
43
0.0000000001
44
0.0000000001
40
0
40
0
40
0
40
0
40
0.37169913392255177
40
0.37169913392255177
40
0.37169913392255177
40
0.37169913392255177
41
1
41
1
41
1
41
1
10
1.2122454016833384
20
21.5311136600738
30
0
10
0.38868374554585616
20
21.010944083675511
30
0
10
-0.12876075627350153
20
20.684121088317326
30
0
10
-0.59852055353922473
20
20.575001628602724
30
0
0
SPLINE
5
664
100
AcDbEntity
8
0
100
AcDbSpline
70
4
71
3
72
8
73
4
74
0
42
0.000000001
43
0.0000000001
44
0.0000000001
40
0.55465105750495036
40
0.55465105750495036
40
0.55465105750495036
40
0.55465105750495036
40
1
40
1
40
1
40
1
41
1
41
1
41
1
41
1
10
-1.2883334560380333
20
20.575004744454695
30
0
10
-1.8699455836141465
20
20.708107269060729
30
0
10
-2.5657079988223512
20
21.170943903338113
30
0
10
-3.8201226542960676
20
22.005408433811411
30
0
0
LINE
5
665
100
AcDbEntity
8
0
100
AcDbLine
10
-1.2883334560380333
20
20.575004744454695
30
0
11
-0.59852055353922484
21
20.575001628602724
31
0
0
LINE
5
666
100
AcDbEntity
8
0
100
AcDbLine
10
-6.4993149361106992
20
28.574999999502182
30
0
11
3.5512748918139532
21
28.574999999947014
31
0
0
LINE
5
667
100
AcDbEntity
8
0
100
AcDbLine
10
-3.561365026118132
20
20.574999999986328
30
0
11
-10.60335386433141
21
20.574999999412455
31
0
0
LINE
5
668
100
AcDbEntity
8
0
100
AcDbLine
10
-18.505947041958922
20
28.574999991008589
30
0
11
-7.9615146507557357
21
28.574999999926824
31
0
0
LINE
5
669
100
AcDbEntity
8
0
100
AcDbLine
10
-15.363077699294635
20
20.574999999561122
30
0
11
-22.834026135086695
21
20.574999999876873
31
0
0
LINE
5
670
100
AcDbEntity
8
0
100
AcDbLine
10
-34.514991248903833
20
20.574999967478004
30
0
11
-27.730277907830391
21
20.574999999714173
31
0
0
ENDSEC
0
SECTION
2
OBJECTS
0
DICTIONARY
5
C
100
AcDbDictionary
3
ACAD_GROUP
350
D
3
ACAD_MLINESTYLE
350
17
0
DICTIONARY
5
D
100
AcDbDictionary
0
DICTIONARY
5
1A
330
C
100
AcDbDictionary
0
DICTIONARY
5
17
100
AcDbDictionary
0
ENDSEC
0
EOF
