0
SECTION
2
HEADER
9
$INSUNITS
70
4
9
$ACADVER
1
AC1014
9
$HANDSEED
5
FFFF
0
ENDSEC
0
SECTION
2
TABLES
0
TABLE
2
VPORT
5
8
100
AcDbSymbolTable
0
ENDTAB
0
TABLE
2
LTYPE
5
5
100
AcDbSymbolTable
0
LTYPE
5
14
100
AcDbSymbolTableRecord
100
AcDbLinetypeTableRecord
2
BYBLOCK
70
0
0
LTYPE
5
15
100
AcDbSymbolTableRecord
100
AcDbLinetypeTableRecord
2
BYLAYER
70
0
0
ENDTAB
0
TABLE
2
LAYER
5
2
100
AcDbSymbolTable
70
2
0
LAYER
5
50
100
AcDbSymbolTableRecord
100
AcDbLayerTableRecord
2
0
70
0
6
CONTINUOUS
0
ENDTAB
0
TABLE
2
STYLE
5
3
100
AcDbSymbolTable
70
1
0
STYLE
5
11
100
AcDbSymbolTableRecord
100
AcDbTextStyleTableRecord
2
STANDARD
70
0
0
ENDTAB
0
TABLE
2
VIEW
5
6
100
AcDbSymbolTable
70
0
0
ENDTAB
0
TABLE
2
UCS
5
7
100
AcDbSymbolTable
70
0
0
ENDTAB
0
TABLE
2
APPID
5
9
100
AcDbSymbolTable
70
2
0
APPID
5
12
100
AcDbSymbolTableRecord
100
AcDbRegAppTableRecord
2
ACAD
70
0
0
ENDTAB
0
TABLE
2
DIMSTYLE
5
A
100
AcDbSymbolTable
70
1
0
ENDTAB
0
TABLE
2
BLOCK_RECORD
5
1
100
AcDbSymbolTable
70
1
0
BLOCK_RECORD
5
1F
100
AcDbSymbolTableRecord
100
AcDbBlockTableRecord
2
*MODEL_SPACE
0
BLOCK_RECORD
5
1B
100
AcDbSymbolTableRecord
100
AcDbBlockTableRecord
2
*PAPER_SPACE
0
ENDTAB
0
ENDSEC
0
SECTION
2
BLOCKS
0
BLOCK
5
20
100
AcDbEntity
100
AcDbBlockBegin
2
*MODEL_SPACE
0
ENDBLK
5
21
100
AcDbEntity
100
AcDbBlockEnd
0
BLOCK
5
1C
100
AcDbEntity
100
AcDbBlockBegin
2
*PAPER_SPACE
0
ENDBLK
5
1D
100
AcDbEntity
100
AcDbBlockEnd
0
ENDSEC
0
SECTION
2
ENTITIES
0
LINE
5
100
100
AcDbEntity
8
0
100
AcDbLine
10
-53.974999999999994
20
-28.574999999999999
30
0
11
53.974999999999994
21
-28.574999999999999
31
0
0
LINE
5
101
100
AcDbEntity
8
0
100
AcDbLine
10
53.974999999999994
20
-28.574999999999999
30
0
11
53.974999999999994
21
28.574999999999999
31
0
0
LINE
5
102
100
AcDbEntity
8
0
100
AcDbLine
10
-53.974999999999994
20
28.574999999999999
30
0
11
-53.974999999999994
21
-28.574999999999999
31
0
0
LINE
5
103
100
AcDbEntity
8
0
100
AcDbLine
10
53.974999999999994
20
28.574999999999999
30
0
11
-53.974999999999994
21
28.574999999999999
31
0
0
LINE
5
104
100
AcDbEntity
8
0
100
AcDbLine
10
-45.974999999999994
20
-20.575000000000003
30
0
11
45.974999999999994
21
-20.575000000000003
31
0
0
LINE
5
105
100
AcDbEntity
8
0
100
AcDbLine
10
45.974999999999994
20
-20.575000000000003
30
0
11
45.974999999999994
21
20.575000000000003
31
0
0
LINE
5
106
100
AcDbEntity
8
0
100
AcDbLine
10
-45.974999999999973
20
20.575000000000003
30
0
11
-45.974999999999994
21
-20.575000000000003
31
0
0
LINE
5
107
100
AcDbEntity
8
0
100
AcDbLine
10
45.974999999999994
20
20.575000000000003
30
0
11
-45.974999999999973
21
20.575000000000003
31
0
0
LINE
5
108
100
AcDbEntity
8
0
100
AcDbLine
10
17.583007275120064
20
-11.023876484400713
30
0
11
17.736842137620073
21
-10.963466684400725
31
0
0
LINE
5
109
100
AcDbEntity
8
0
100
AcDbLine
10
17.736842137620073
20
-10.963466684400725
30
0
11
17.857646887620074
21
-10.897877946900714
31
0
0
LINE
5
110
100
AcDbEntity
8
0
100
AcDbLine
10
17.857646887620074
20
-10.897877946900714
30
0
11
17.954940375120081
21
-10.828602696900713
31
0
0
LINE
5
111
100
AcDbEntity
8
0
100
AcDbLine
10
17.954940375120081
20
-10.828602696900713
30
0
11
17.954940375120081
21
-10.375622009400713
31
0
0
LINE
5
112
100
AcDbEntity
8
0
100
AcDbLine
10
17.954940375120081
20
-10.375622009400713
30
0
11
17.954940375120088
21
-9.9226450344007215
31
0
0
LINE
5
113
100
AcDbEntity
8
0
100
AcDbLine
10
17.954940375120088
20
-9.9226450344007215
30
0
11
17.609681587620067
21
-9.9226450344007215
31
0
0
LINE
5
114
100
AcDbEntity
8
0
100
AcDbLine
10
17.609681587620067
20
-9.9226450344007215
30
0
11
17.26441166262007
21
-9.9226450344007215
31
0
0
LINE
5
115
100
AcDbEntity
8
0
100
AcDbLine
10
17.26441166262007
20
-9.9226450344007215
30
0
11
17.26441166262007
21
-10.032497909400714
31
0
0
LINE
5
116
100
AcDbEntity
8
0
100
AcDbLine
10
17.26441166262007
20
-10.032497909400714
30
0
11
17.26441166262007
21
-10.142354496900722
31
0
0
LINE
5
117
100
AcDbEntity
8
0
100
AcDbLine
10
17.26441166262007
20
-10.142354496900722
30
0
11
17.484124837620069
21
-10.142354496900722
31
0
0
LINE
5
118
100
AcDbEntity
8
0
100
AcDbLine
10
17.703841725120071
20
-10.142354496900722
30
0
11
17.703841725120071
21
-10.451189946900712
31
0
0
LINE
5
119
100
AcDbEntity
8
0
100
AcDbLine
10
17.703841725120071
20
-10.451189946900712
30
0
11
17.703841725120071
21
-10.760025396900716
31
0
0
LINE
5
120
100
AcDbEntity
8
0
100
AcDbLine
10
17.703841725120071
20
-10.760025396900716
30
0
11
17.617522387620067
21
-10.800361709400722
31
0
0
LINE
5
121
100
AcDbEntity
8
0
100
AcDbLine
10
17.617522387620067
20
-10.800361709400722
30
0
11
17.56791225012007
21
-10.817231309400722
31
0
0
LINE
5
122
100
AcDbEntity
8
0
100
AcDbLine
10
17.56791225012007
20
-10.817231309400722
30
0
11
17.496632250120079
21
-10.833336134400721
31
0
0
LINE
5
123
100
AcDbEntity
8
0
100
AcDbLine
10
17.496632250120079
20
-10.833336134400721
30
0
11
17.413219800120064
21
-10.846860771900715
31
0
0
LINE
5
124
100
AcDbEntity
8
0
100
AcDbLine
10
17.413219800120064
20
-10.846860771900715
30
0
11
17.327190037620067
21
-10.855974959400715
31
0
0
LINE
5
125
100
AcDbEntity
8
0
100
AcDbLine
10
17.327190037620067
20
-10.855974959400715
30
0
11
17.123173312620072
21
-10.871251896900713
31
0
0
LINE
5
126
100
AcDbEntity
8
0
100
AcDbLine
10
17.123173312620072
20
-10.871251896900713
30
0
11
16.991205075120067
21
-10.835541359400722
31
0
0
LINE
5
127
100
AcDbEntity
8
0
100
AcDbLine
10
16.991205075120067
20
-10.835541359400722
30
0
11
16.896020287620072
21
-10.801980359400726
31
0
0
LINE
5
128
100
AcDbEntity
8
0
100
AcDbLine
10
16.896020287620072
20
-10.801980359400726
30
0
11
16.811353012620074
21
-10.755462734400723
31
0
0
LINE
5
129
100
AcDbEntity
8
0
100
AcDbLine
10
16.811353012620074
20
-10.755462734400723
30
0
11
16.736950800120066
21
-10.69565064690072
31
0
0
LINE
5
130
100
AcDbEntity
8
0
100
AcDbLine
10
16.736950800120066
20
-10.69565064690072
30
0
11
16.672561200120079
21
-10.622195121900715
31
0
0
LINE
5
131
100
AcDbEntity
8
0
100
AcDbLine
10
16.672561200120079
20
-10.622195121900715
30
0
11
16.617928050120064
21
-10.534762034400721
31
0
0
LINE
5
132
100
AcDbEntity
8
0
100
AcDbLine
10
16.617928050120064
20
-10.534762034400721
30
0
11
16.572798900120059
21
-10.43299869690072
31
0
0
LINE
5
133
100
AcDbEntity
8
0
100
AcDbLine
10
16.572798900120059
20
-10.43299869690072
30
0
11
16.536921300120074
21
-10.316567271900723
31
0
0
LINE
5
134
100
AcDbEntity
8
0
100
AcDbLine
10
16.536921300120074
20
-10.316567271900723
30
0
11
16.510039087620068
21
-10.185126209400721
31
0
0
LINE
5
135
100
AcDbEntity
8
0
100
AcDbLine
10
16.510039087620068
20
-10.185126209400721
30
0
11
16.49042223762007
21
-9.9962824719007255
31
0
0
LINE
5
136
100
AcDbEntity
8
0
100
AcDbLine
10
16.49042223762007
20
-9.9962824719007255
30
0
11
16.492920750120078
21
-9.8160628719007157
31
0
0
LINE
5
137
100
AcDbEntity
8
0
100
AcDbLine
10
16.492920750120078
20
-9.8160628719007157
30
0
11
16.516428300120069
21
-9.6475116594007204
31
0
0
LINE
5
138
100
AcDbEntity
8
0
100
AcDbLine
10
16.516428300120069
20
-9.6475116594007204
30
0
11
16.559834850120069
21
-9.4936693719007383
31
0
0
LINE
5
139
100
AcDbEntity
8
0
100
AcDbLine
10
16.559834850120069
20
-9.4936693719007383
30
0
11
16.622034075120073
21
-9.3575765469007219
31
0
0
LINE
5
140
100
AcDbEntity
8
0
100
AcDbLine
10
16.622034075120073
20
-9.3575765469007219
30
0
11
16.701919650120061
21
-9.2422811469007176
31
0
0
LINE
5
141
100
AcDbEntity
8
0
100
AcDbLine
10
16.701919650120061
20
-9.2422811469007176
30
0
11
16.798374112620071
21
-9.1508199969007205
31
0
0
LINE
5
142
100
AcDbEntity
8
0
100
AcDbLine
10
16.798374112620071
20
-9.1508199969007205
30
0
11
16.91030227512006
21
-9.0862373469007309
31
0
0
LINE
5
143
100
AcDbEntity
8
0
100
AcDbLine
10
16.91030227512006
20
-9.0862373469007309
30
0
11
16.968488287620072
21
-9.0686215344007302
31
0
0
LINE
5
144
100
AcDbEntity
8
0
100
AcDbLine
10
16.968488287620072
20
-9.0686215344007302
30
0
11
17.043451087620063
21
-9.0561586719007288
31
0
0
LINE
5
145
100
AcDbEntity
8
0
100
AcDbLine
10
17.043451087620063
20
-9.0561586719007288
30
0
11
17.130004312620073
21
-9.0488339094007273
31
0
0
LINE
5
146
100
AcDbEntity
8
0
100
AcDbLine
10
17.130004312620073
20
-9.0488339094007273
30
0
11
17.222946750120084
21
-9.0466249719007301
31
0
0
LINE
5
147
100
AcDbEntity
8
0
100
AcDbLine
10
17.222946750120084
20
-9.0466249719007301
30
0
11
17.317092037620068
21
-9.049513296900729
31
0
0
LINE
5
148
100
AcDbEntity
8
0
100
AcDbLine
10
17.317092037620068
20
-9.049513296900729
30
0
11
17.407246387620074
21
-9.0574803219007158
31
0
0
LINE
5
149
100
AcDbEntity
8
0
100
AcDbLine
10
17.407246387620074
20
-9.0574803219007158
30
0
11
17.488216012620068
21
-9.0705074844007392
31
0
0
LINE
5
150
100
AcDbEntity
8
0
100
AcDbLine
10
17.488216012620068
20
-9.0705074844007392
30
0
11
17.55481455012006
21
-9.0885762219007269
31
0
0
ARC
5
151
100
AcDbEntity
8
0
100
AcDbCircle
10
17.264582112479971
20
-9.882419036794186
30
0
40
0.84523445422940313
210
0
220
-0
230
1
100
AcDbArc
50
52.222623151549044
51
69.917364642329815
0
LINE
5
152
100
AcDbEntity
8
0
100
AcDbLine
10
17.782368525120059
20
-9.2143482969007309
30
0
11
17.892162000120081
21
-9.2980837344007288
31
0
0
LINE
5
153
100
AcDbEntity
8
0
100
AcDbLine
10
17.892162000120081
20
-9.2980837344007288
30
0
11
17.892162000120081
21
-9.1535152719007247
31
0
0
LINE
5
154
100
AcDbEntity
8
0
100
AcDbLine
10
17.892162000120081
20
-9.1535152719007247
30
0
11
17.892162000120081
21
-9.0089356719007228
31
0
0
LINE
5
155
100
AcDbEntity
8
0
100
AcDbLine
10
17.892162000120081
20
-9.0089356719007228
30
0
11
17.711682525120061
21
-8.9262285969007209
31
0
0
LINE
5
156
100
AcDbEntity
8
0
100
AcDbLine
10
17.711682525120061
20
-8.9262285969007209
30
0
11
17.531210475120076
21
-8.8435215219007208
31
0
0
LINE
5
157
100
AcDbEntity
8
0
100
AcDbLine
10
17.531210475120076
20
-8.8435215219007208
30
0
11
17.274164400120071
21
-8.8299671844007257
31
0
0
LINE
5
158
100
AcDbEntity
8
0
100
AcDbLine
10
17.274164400120071
20
-8.8299671844007257
30
0
11
17.017118325120073
21
-8.8164128469007288
31
0
0
LINE
5
159
100
AcDbEntity
8
0
100
AcDbLine
10
17.017118325120073
20
-8.8164128469007288
30
0
11
16.853211450120067
21
-8.8751705844007347
31
0
0
LINE
5
160
100
AcDbEntity
8
0
100
AcDbLine
10
16.853211450120067
20
-8.8751705844007347
30
0
11
16.689293437620076
21
-8.9339394594007224
31
0
0
LINE
5
161
100
AcDbEntity
8
0
100
AcDbLine
10
16.689293437620076
20
-8.9339394594007224
30
0
11
16.559478450120071
21
-9.0599862594007181
31
0
0
LINE
5
162
100
AcDbEntity
8
0
100
AcDbLine
10
16.559478450120071
20
-9.0599862594007181
30
0
11
16.446384562620082
21
-9.1898903469007269
31
0
0
LINE
5
163
100
AcDbEntity
8
0
100
AcDbLine
10
16.446384562620082
20
-9.1898903469007269
30
0
11
16.360830000120082
21
-9.3362148219007128
31
0
0
LINE
5
164
100
AcDbEntity
8
0
100
AcDbLine
10
16.360830000120082
20
-9.3362148219007128
30
0
11
16.327194750120078
21
-9.4180828719007224
31
0
0
LINE
5
165
100
AcDbEntity
8
0
100
AcDbLine
10
16.327194750120078
20
-9.4180828719007224
30
0
11
16.299028012620074
21
-9.5071160469007268
31
0
0
LINE
5
166
100
AcDbEntity
8
0
100
AcDbLine
10
16.299028012620074
20
-9.5071160469007268
30
0
11
16.275847162620074
21
-9.6043389969007276
31
0
0
LINE
5
167
100
AcDbEntity
8
0
100
AcDbLine
10
16.275847162620074
20
-9.6043389969007276
30
0
11
16.257184425120069
21
-9.7107615219007197
31
0
0
LINE
5
168
100
AcDbEntity
8
0
100
AcDbLine
10
16.257184425120069
20
-9.7107615219007197
30
0
11
16.22102838762007
21
-9.9538671594007155
31
0
0
LINE
5
169
100
AcDbEntity
8
0
100
AcDbLine
10
16.22102838762007
20
-9.9538671594007155
30
0
11
16.252751700120065
21
-10.167636621900719
31
0
0
ARC
5
170
100
AcDbEntity
8
0
100
AcDbCircle
10
17.745956127287212
20
-9.9662048826029341
30
0
40
1.5067296396195615
210
0
220
0
230
1
100
AcDbArc
50
187.6827627127654
51
202.51748961229953
0
LINE
5
171
100
AcDbEntity
8
0
100
AcDbLine
10
16.354095525120059
20
-10.543230246900714
30
0
11
16.423704900120061
21
-10.705050696900713
31
0
0
LINE
5
172
100
AcDbEntity
8
0
100
AcDbLine
10
16.423704900120061
20
-10.705050696900713
30
0
11
16.573392900120062
21
-10.845063921900724
31
0
0
LINE
5
173
100
AcDbEntity
8
0
100
AcDbLine
10
16.573392900120062
20
-10.845063921900724
30
0
11
16.723080900120056
21
-10.985080859400727
31
0
0
LINE
5
174
100
AcDbEntity
8
0
100
AcDbLine
10
16.723080900120056
20
-10.985080859400727
30
0
11
16.88959023762007
21
-11.03452393440072
31
0
0
ARC
5
175
100
AcDbEntity
8
0
100
AcDbCircle
10
17.219030286554251
20
-9.9048513672419709
30
0
40
1.1767288790680681
210
0
220
0
230
1
100
AcDbArc
50
253.74202882412658
51
288.01799543141516
0
LINE
5
176
100
AcDbEntity
8
0
100
AcDbLine
10
17.484124837620069
20
-10.142354496900722
30
0
11
17.703841725120071
21
-10.142354496900722
31
0
0
LINE
5
177
100
AcDbEntity
8
0
100
AcDbLine
10
18.478143000120074
20
-10.287947609400717
30
0
11
18.423361350120064
21
-10.450896659400716
31
0
0
LINE
5
178
100
AcDbEntity
8
0
100
AcDbLine
10
18.423361350120064
20
-10.450896659400716
30
0
11
18.372852787620072
21
-10.60140883440072
31
0
0
LINE
5
179
100
AcDbEntity
8
0
100
AcDbLine
10
18.372852787620072
20
-10.60140883440072
30
0
11
18.32813572512007
21
-10.734995721900713
31
0
0
LINE
5
180
100
AcDbEntity
8
0
100
AcDbLine
10
18.32813572512007
20
-10.734995721900713
30
0
11
18.290721150120056
21
-10.847157771900715
31
0
0
LINE
5
181
100
AcDbEntity
8
0
100
AcDbLine
10
18.290721150120056
20
-10.847157771900715
30
0
11
18.262120050120071
21
-10.933402859400713
31
0
0
LINE
5
182
100
AcDbEntity
8
0
100
AcDbLine
10
18.262120050120071
20
-10.933402859400713
30
0
11
18.243850837620062
21
-10.989246284400714
31
0
0
LINE
5
183
100
AcDbEntity
8
0
100
AcDbLine
10
18.243850837620062
20
-10.989246284400714
30
0
11
18.237424500120071
21
-11.010188496900719
31
0
0
LINE
5
184
100
AcDbEntity
8
0
100
AcDbLine
10
18.237424500120071
20
-11.010188496900719
30
0
11
18.247077000120079
21
-11.01446529690072
31
0
0
LINE
5
185
100
AcDbEntity
8
0
100
AcDbLine
10
18.247077000120079
20
-11.01446529690072
30
0
11
18.273354075120078
21
-11.017966184400718
31
0
0
LINE
5
186
100
AcDbEntity
8
0
100
AcDbLine
10
18.273354075120078
20
-11.017966184400718
30
0
11
18.312246225120077
21
-11.020331046900715
31
0
0
LINE
5
187
100
AcDbEntity
8
0
100
AcDbLine
10
18.312246225120077
20
-11.020331046900715
30
0
11
18.359736525120056
21
-11.02119977190072
31
0
0
LINE
5
188
100
AcDbEntity
8
0
100
AcDbLine
10
18.359736525120056
20
-11.02119977190072
30
0
11
18.482052262620069
21
-11.02119977190072
31
0
0
LINE
5
189
100
AcDbEntity
8
0
100
AcDbLine
10
18.482052262620069
20
-11.02119977190072
30
0
11
18.568702012620072
21
-10.738711934400719
31
0
0
LINE
5
190
100
AcDbEntity
8
0
100
AcDbLine
10
18.568702012620072
20
-10.738711934400719
30
0
11
18.655351762620064
21
-10.456224096900719
31
0
0
LINE
5
191
100
AcDbEntity
8
0
100
AcDbLine
10
18.655351762620064
20
-10.456224096900719
30
0
11
19.115311950120066
21
-10.456224096900719
31
0
0
LINE
5
192
100
AcDbEntity
8
0
100
AcDbLine
10
19.115311950120066
20
-10.456224096900719
30
0
11
19.575272137620068
21
-10.456224096900719
31
0
0
LINE
5
193
100
AcDbEntity
8
0
100
AcDbLine
10
19.575272137620068
20
-10.456224096900719
30
0
11
19.66554900012007
21
-10.738711934400719
31
0
0
LINE
5
194
100
AcDbEntity
8
0
100
AcDbLine
10
19.66554900012007
20
-10.738711934400719
30
0
11
19.755822150120064
21
-11.02119977190072
31
0
0
LINE
5
195
100
AcDbEntity
8
0
100
AcDbLine
10
19.755822150120064
20
-11.02119977190072
30
0
11
19.875476025120058
21
-11.02119977190072
31
0
0
LINE
5
196
100
AcDbEntity
8
0
100
AcDbLine
10
19.875476025120058
20
-11.02119977190072
30
0
11
19.921915687620075
21
-11.020579784400713
31
0
0
LINE
5
197
100
AcDbEntity
8
0
100
AcDbLine
10
19.921915687620075
20
-11.020579784400713
30
0
11
19.959916837620057
21
-11.01889430940072
31
0
0
LINE
5
198
100
AcDbEntity
8
0
100
AcDbLine
10
19.959916837620057
20
-11.01889430940072
30
0
11
19.985562787620069
21
-11.016399509400719
31
0
0
LINE
5
199
100
AcDbEntity
8
0
100
AcDbLine
10
19.985562787620069
20
-11.016399509400719
30
0
11
19.994929425120056
21
-11.013351546900713
31
0
0
LINE
5
200
100
AcDbEntity
8
0
100
AcDbLine
10
19.994929425120056
20
-11.013351546900713
30
0
11
19.992984075120063
21
-11.007018021900716
31
0
0
LINE
5
201
100
AcDbEntity
8
0
100
AcDbLine
10
19.992984075120063
20
-11.007018021900716
30
0
11
19.987311375120072
21
-10.989996209400719
31
0
0
LINE
5
202
100
AcDbEntity
8
0
100
AcDbLine
10
19.987311375120072
20
-10.989996209400719
30
0
11
19.978108087620054
21
-10.962839271900716
31
0
0
LINE
5
203
100
AcDbEntity
8
0
100
AcDbLine
10
19.978108087620054
20
-10.962839271900716
30
0
11
19.965559837620056
21
-10.92610037190072
31
0
0
LINE
5
204
100
AcDbEntity
8
0
100
AcDbLine
10
19.965559837620056
20
-10.92610037190072
30
0
11
19.931189512620058
21
-10.826074484400724
31
0
0
LINE
5
205
100
AcDbEntity
8
0
100
AcDbLine
10
19.931189512620058
20
-10.826074484400724
30
0
11
19.885726237620069
21
-10.694328996900717
31
0
0
LINE
5
206
100
AcDbEntity
8
0
100
AcDbLine
10
19.885726237620069
20
-10.694328996900717
30
0
11
19.830699562620072
21
-10.535274359400722
31
0
0
LINE
5
207
100
AcDbEntity
8
0
100
AcDbLine
10
19.830699562620072
20
-10.535274359400722
30
0
11
19.767627900120068
21
-10.353317309400719
31
0
0
LINE
5
208
100
AcDbEntity
8
0
100
AcDbLine
10
19.767627900120068
20
-10.353317309400719
30
0
11
19.69803337512008
21
-10.152868296900714
31
0
0
LINE
5
209
100
AcDbEntity
8
0
100
AcDbLine
10
19.69803337512008
20
-10.152868296900714
30
0
11
19.623445537620064
21
-9.9383340594007183
31
0
0
LINE
5
210
100
AcDbEntity
8
0
100
AcDbLine
10
19.623445537620064
20
-9.9383340594007183
30
0
11
19.252150987620066
21
-8.8711610844007289
31
0
0
LINE
5
211
100
AcDbEntity
8
0
100
AcDbLine
10
19.252150987620066
20
-8.8711610844007289
30
0
11
19.10922716262008
21
-8.8617424719007225
31
0
0
LINE
5
212
100
AcDbEntity
8
0
100
AcDbLine
10
19.10922716262008
20
-8.8617424719007225
30
0
11
18.966303337620065
21
-8.8523164344007235
31
0
0
LINE
5
213
100
AcDbEntity
8
0
100
AcDbLine
10
18.966303337620065
20
-8.8523164344007235
30
0
11
18.913767750120073
21
-9.0029808219007208
31
0
0
LINE
5
214
100
AcDbEntity
8
0
100
AcDbLine
10
18.913767750120073
20
-9.0029808219007208
30
0
11
18.88863412512007
21
-9.0757086969007208
31
0
0
LINE
5
215
100
AcDbEntity
8
0
100
AcDbLine
10
18.88863412512007
20
-9.0757086969007208
30
0
11
18.854148712620059
21
-9.1764251094007321
31
0
0
LINE
5
216
100
AcDbEntity
8
0
100
AcDbLine
10
18.854148712620059
20
-9.1764251094007321
30
0
11
18.811829925120072
21
-9.3006490719007147
31
0
0
LINE
5
217
100
AcDbEntity
8
0
100
AcDbLine
10
18.811829925120072
20
-9.3006490719007147
30
0
11
18.763188750120072
21
-9.4438773219007235
31
0
0
LINE
5
218
100
AcDbEntity
8
0
100
AcDbLine
10
18.763188750120072
20
-9.4438773219007235
30
0
11
18.652998037620073
21
-9.769400459400714
31
0
0
LINE
5
219
100
AcDbEntity
8
0
100
AcDbLine
10
18.535683037620071
20
-10.117053809400725
30
0
11
18.478143000120074
21
-10.287947609400717
31
0
0
LINE
5
220
100
AcDbEntity
8
0
100
AcDbLine
10
18.652998037620073
20
-9.769400459400714
30
0
11
18.535683037620071
21
-10.117053809400725
31
0
0
LINE
5
221
100
AcDbEntity
8
0
100
AcDbLine
10
19.485232875120076
20
-10.227545234400722
30
0
11
19.463199187620074
21
-10.229650221900709
31
0
0
LINE
5
222
100
AcDbEntity
8
0
100
AcDbLine
10
19.463199187620074
20
-10.229650221900709
30
0
11
19.428368512620068
21
-10.231554734400719
31
0
0
LINE
5
223
100
AcDbEntity
8
0
100
AcDbLine
10
19.428368512620068
20
-10.231554734400719
30
0
11
19.382277825120077
21
-10.23321793440072
31
0
0
LINE
5
224
100
AcDbEntity
8
0
100
AcDbLine
10
19.382277825120077
20
-10.23321793440072
30
0
11
19.262516287620077
21
-10.235631059400728
31
0
0
LINE
5
225
100
AcDbEntity
8
0
100
AcDbLine
10
19.262516287620077
20
-10.235631059400728
30
0
11
19.116273487620067
21
-10.236514634400715
31
0
0
LINE
5
226
100
AcDbEntity
8
0
100
AcDbLine
10
19.116273487620067
20
-10.236514634400715
30
0
11
18.970026975120064
21
-10.234996221900714
31
0
0
LINE
5
227
100
AcDbEntity
8
0
100
AcDbLine
10
18.970026975120064
20
-10.234996221900714
30
0
11
18.850265437620063
21
-10.230856784400721
31
0
0
LINE
5
228
100
AcDbEntity
8
0
100
AcDbLine
10
18.850265437620063
20
-10.230856784400721
30
0
11
18.80417475012008
21
-10.22800187190072
31
0
0
LINE
5
229
100
AcDbEntity
8
0
100
AcDbLine
10
18.80417475012008
20
-10.22800187190072
30
0
11
18.76934407512007
21
-10.224731159400713
31
0
0
LINE
5
230
100
AcDbEntity
8
0
100
AcDbLine
10
18.76934407512007
20
-10.224731159400713
30
0
11
18.747310387620068
21
-10.221122609400714
31
0
0
LINE
5
231
100
AcDbEntity
8
0
100
AcDbLine
10
18.747310387620068
20
-10.221122609400714
30
0
11
18.739621800120066
21
-10.217250471900712
31
0
0
LINE
5
232
100
AcDbEntity
8
0
100
AcDbLine
10
18.739621800120066
20
-10.217250471900712
30
0
11
18.743252625120078
21
-10.202188859400717
31
0
0
LINE
5
233
100
AcDbEntity
8
0
100
AcDbLine
10
18.743252625120078
20
-10.202188859400717
30
0
11
18.753647625120081
21
-10.166504309400722
31
0
0
LINE
5
234
100
AcDbEntity
8
0
100
AcDbLine
10
18.753647625120081
20
-10.166504309400722
30
0
11
18.770086575120068
21
-10.112517134400713
31
0
0
LINE
5
235
100
AcDbEntity
8
0
100
AcDbLine
10
18.770086575120068
20
-10.112517134400713
30
0
11
18.791834400120067
21
-10.042566209400714
31
0
0
LINE
5
236
100
AcDbEntity
8
0
100
AcDbLine
10
18.791834400120067
20
-10.042566209400714
30
0
11
18.818167162620071
21
-9.9589718469007149
31
0
0
LINE
5
237
100
AcDbEntity
8
0
100
AcDbLine
10
18.818167162620071
20
-9.9589718469007149
30
0
11
18.84835350012008
21
-9.8640617844007128
31
0
0
LINE
5
238
100
AcDbEntity
8
0
100
AcDbLine
10
18.84835350012008
20
-9.8640617844007128
30
0
11
18.881662050120063
21
-9.760171184400722
31
0
0
LINE
5
239
100
AcDbEntity
8
0
100
AcDbLine
10
18.881662050120063
20
-9.760171184400722
30
0
11
18.917365162620072
21
-9.6496240719007158
31
0
0
LINE
5
240
100
AcDbEntity
8
0
100
AcDbLine
10
18.917365162620072
20
-9.6496240719007158
30
0
11
19.095112237620064
21
-9.1012544094007239
31
0
0
LINE
5
241
100
AcDbEntity
8
0
100
AcDbLine
10
19.095112237620064
20
-9.1012544094007239
30
0
11
19.120409212620071
21
-9.1464615219007293
31
0
0
LINE
5
242
100
AcDbEntity
8
0
100
AcDbLine
10
19.120409212620071
20
-9.1464615219007293
30
0
11
19.315360012620072
21
-9.6917683719007268
31
0
0
LINE
5
243
100
AcDbEntity
8
0
100
AcDbLine
10
19.492921462620068
20
-10.225291746900719
30
0
11
19.485232875120076
21
-10.227545234400722
31
0
0
LINE
5
244
100
AcDbEntity
8
0
100
AcDbLine
10
19.315360012620072
20
-9.6917683719007268
30
0
11
19.492921462620068
21
-10.225291746900719
31
0
0
LINE
5
245
100
AcDbEntity
8
0
100
AcDbLine
10
20.315251350120072
20
-10.399240934400716
30
0
11
20.318243625120065
21
-10.539124221900719
31
0
0
LINE
5
246
100
AcDbEntity
8
0
100
AcDbLine
10
20.318243625120065
20
-10.539124221900719
30
0
11
20.321662837620057
21
-10.657107471900712
31
0
0
LINE
5
247
100
AcDbEntity
8
0
100
AcDbLine
10
20.321662837620057
20
-10.657107471900712
30
0
11
20.325423600120068
21
-10.748679996900714
31
0
0
LINE
5
248
100
AcDbEntity
8
0
100
AcDbLine
10
20.325423600120068
20
-10.748679996900714
30
0
11
20.329447950120066
21
-10.809334821900716
31
0
0
LINE
5
249
100
AcDbEntity
8
0
100
AcDbLine
10
20.329447950120066
20
-10.809334821900716
30
0
11
20.349450900120051
21
-11.02119977190072
31
0
0
LINE
5
250
100
AcDbEntity
8
0
100
AcDbLine
10
20.349450900120051
20
-11.02119977190072
30
0
11
20.454770812620069
21
-11.02119977190072
31
0
0
LINE
5
251
100
AcDbEntity
8
0
100
AcDbLine
10
20.454770812620069
20
-11.02119977190072
30
0
11
20.560090725120077
21
-11.02119977190072
31
0
0
LINE
5
252
100
AcDbEntity
8
0
100
AcDbLine
10
20.560090725120077
20
-11.02119977190072
30
0
11
20.560090725120077
21
-9.9226450344007215
31
0
0
LINE
5
253
100
AcDbEntity
8
0
100
AcDbLine
10
20.560090725120077
20
-9.9226450344007215
30
0
11
20.560090725120077
21
-8.8240828719007229
31
0
0
LINE
5
254
100
AcDbEntity
8
0
100
AcDbLine
10
20.560090725120077
20
-8.8240828719007229
30
0
11
20.434537687620068
21
-8.8240828719007229
31
0
0
LINE
5
255
100
AcDbEntity
8
0
100
AcDbLine
10
20.434537687620068
20
-8.8240828719007229
30
0
11
20.308992075120067
21
-8.8240828719007229
31
0
0
LINE
5
256
100
AcDbEntity
8
0
100
AcDbLine
10
20.308992075120067
20
-8.8240828719007229
30
0
11
20.309207400120059
21
-9.7107800844007279
31
0
0
LINE
5
257
100
AcDbEntity
8
0
100
AcDbLine
10
20.310881737620072
20
-10.071779871900723
30
0
11
20.315251350120072
21
-10.399240934400716
31
0
0
LINE
5
258
100
AcDbEntity
8
0
100
AcDbLine
10
20.309207400120059
20
-9.7107800844007279
30
0
11
20.310881737620072
21
-10.071779871900723
31
0
0
LINE
5
259
100
AcDbEntity
8
0
100
AcDbLine
10
21.125066400120058
20
-11.02119977190072
30
0
11
21.234919275120056
21
-11.02119977190072
31
0
0
LINE
5
260
100
AcDbEntity
8
0
100
AcDbLine
10
21.234919275120056
20
-11.02119977190072
30
0
11
21.34477215012005
21
-11.02119977190072
31
0
0
LINE
5
261
100
AcDbEntity
8
0
100
AcDbLine
10
21.34477215012005
20
-11.02119977190072
30
0
11
21.34477215012005
21
-10.088998446900712
31
0
0
LINE
5
262
100
AcDbEntity
8
0
100
AcDbLine
10
21.34477215012005
20
-10.088998446900712
30
0
11
21.34477215012005
21
-9.156785984400738
31
0
0
LINE
5
263
100
AcDbEntity
8
0
100
AcDbLine
10
21.34477215012005
20
-9.156785984400738
30
0
11
21.373584862620056
21
-9.1866084969007318
31
0
0
LINE
5
264
100
AcDbEntity
8
0
100
AcDbLine
10
21.373584862620056
20
-9.1866084969007318
30
0
11
21.378763800120065
21
-9.1943267844007224
31
0
0
LINE
5
265
100
AcDbEntity
8
0
100
AcDbLine
10
21.378763800120065
20
-9.1943267844007224
30
0
11
21.388193550120054
21
-9.2110144719007323
31
0
0
LINE
5
266
100
AcDbEntity
8
0
100
AcDbLine
10
21.388193550120054
20
-9.2110144719007323
30
0
11
21.401636512620065
21
-9.2361963594007257
31
0
0
LINE
5
267
100
AcDbEntity
8
0
100
AcDbLine
10
21.401636512620065
20
-9.2361963594007257
30
0
11
21.418862512620073
21
-9.2693898219007256
31
0
0
LINE
5
268
100
AcDbEntity
8
0
100
AcDbLine
10
21.418862512620073
20
-9.2693898219007256
30
0
11
21.463709512620063
21
-9.3579069594007258
31
0
0
LINE
5
269
100
AcDbEntity
8
0
100
AcDbLine
10
21.463709512620063
20
-9.3579069594007258
30
0
11
21.520841175120058
21
-9.4727420094007222
31
0
0
LINE
5
270
100
AcDbEntity
8
0
100
AcDbLine
10
21.520841175120058
20
-9.4727420094007222
30
0
11
21.588367837620055
21
-9.6100748094007269
31
0
0
LINE
5
271
100
AcDbEntity
8
0
100
AcDbLine
10
21.588367837620055
20
-9.6100748094007269
30
0
11
21.664399837620056
21
-9.7660814844007255
31
0
0
LINE
5
272
100
AcDbEntity
8
0
100
AcDbLine
10
21.664399837620056
20
-9.7660814844007255
30
0
11
21.747047512620057
21
-9.9369344469007146
31
0
0
LINE
5
273
100
AcDbEntity
8
0
100
AcDbLine
10
21.747047512620057
20
-9.9369344469007146
30
0
11
21.834421200120069
21
-10.118813534400717
31
0
0
LINE
5
274
100
AcDbEntity
8
0
100
AcDbLine
10
21.834421200120069
20
-10.118813534400717
30
0
11
22.266441112620058
21
-11.02119977190072
31
0
0
LINE
5
275
100
AcDbEntity
8
0
100
AcDbLine
10
22.266441112620058
20
-11.02119977190072
30
0
11
22.433358825120067
21
-11.02119977190072
31
0
0
LINE
5
276
100
AcDbEntity
8
0
100
AcDbLine
10
22.433358825120067
20
-11.02119977190072
30
0
11
22.600269112620058
21
-11.02119977190072
31
0
0
LINE
5
277
100
AcDbEntity
8
0
100
AcDbLine
10
22.600269112620058
20
-11.02119977190072
30
0
11
22.600269112620062
21
-9.9226450344007215
31
0
0
LINE
5
278
100
AcDbEntity
8
0
100
AcDbLine
10
22.600269112620062
20
-9.9226450344007215
30
0
11
22.600269112620062
21
-8.8240828719007229
31
0
0
LINE
5
279
100
AcDbEntity
8
0
100
AcDbLine
10
22.600269112620062
20
-8.8240828719007229
30
0
11
22.469908387620059
21
-8.8240828719007229
31
0
0
LINE
5
280
100
AcDbEntity
8
0
100
AcDbLine
10
22.469908387620059
20
-8.8240828719007229
30
0
11
22.33955137512006
21
-8.8240828719007229
31
0
0
LINE
5
281
100
AcDbEntity
8
0
100
AcDbLine
10
22.33955137512006
20
-8.8240828719007229
30
0
11
22.357256287620064
21
-9.7500100719007143
31
0
0
LINE
5
282
100
AcDbEntity
8
0
100
AcDbLine
10
22.357256287620064
20
-9.7500100719007143
30
0
11
22.360397062620066
21
-9.9360026094007203
31
0
0
LINE
5
283
100
AcDbEntity
8
0
100
AcDbLine
10
22.360397062620066
20
-9.9360026094007203
30
0
11
22.36250576262006
21
-10.109502584400715
31
0
0
LINE
5
284
100
AcDbEntity
8
0
100
AcDbLine
10
22.36250576262006
20
-10.109502584400715
30
0
11
22.363593525120056
21
-10.266712109400729
31
0
0
LINE
5
285
100
AcDbEntity
8
0
100
AcDbLine
10
22.363593525120056
20
-10.266712109400729
30
0
11
22.363678912620063
21
-10.403837009400718
31
0
0
LINE
5
286
100
AcDbEntity
8
0
100
AcDbLine
10
22.363678912620063
20
-10.403837009400718
30
0
11
22.362773062620072
21
-10.517083109400719
31
0
0
LINE
5
287
100
AcDbEntity
8
0
100
AcDbLine
10
22.362773062620072
20
-10.517083109400719
30
0
11
22.360887112620063
21
-10.602648809400719
31
0
0
LINE
5
288
100
AcDbEntity
8
0
100
AcDbLine
10
22.360887112620063
20
-10.602648809400719
30
0
11
22.358035912620068
21
-10.656743646900718
31
0
0
LINE
5
289
100
AcDbEntity
8
0
100
AcDbLine
10
22.358035912620068
20
-10.656743646900718
30
0
11
22.354230600120061
21
-10.675566021900714
31
0
0
LINE
5
290
100
AcDbEntity
8
0
100
AcDbLine
10
22.354230600120061
20
-10.675566021900714
30
0
11
22.349835000120066
21
-10.670732346900724
31
0
0
LINE
5
291
100
AcDbEntity
8
0
100
AcDbLine
10
22.349835000120066
20
-10.670732346900724
30
0
11
22.341092062620078
21
-10.656624846900719
31
0
0
LINE
5
292
100
AcDbEntity
8
0
100
AcDbLine
10
22.341092062620078
20
-10.656624846900719
30
0
11
22.328235675120062
21
-10.633715009400721
31
0
0
LINE
5
293
100
AcDbEntity
8
0
100
AcDbLine
10
22.328235675120062
20
-10.633715009400721
30
0
11
22.311499725120065
21
-10.602481746900718
31
0
0
LINE
5
294
100
AcDbEntity
8
0
100
AcDbLine
10
22.311499725120065
20
-10.602481746900718
30
0
11
22.26733582512006
21
-10.516930896900709
31
0
0
LINE
5
295
100
AcDbEntity
8
0
100
AcDbLine
10
22.26733582512006
20
-10.516930896900709
30
0
11
22.210493737620066
21
-10.403762759400717
31
0
0
LINE
5
296
100
AcDbEntity
8
0
100
AcDbLine
10
22.210493737620066
20
-10.403762759400717
30
0
11
22.142855700120059
21
-10.266775221900728
31
0
0
LINE
5
297
100
AcDbEntity
8
0
100
AcDbLine
10
22.142855700120059
20
-10.266775221900728
30
0
11
22.066311375120069
21
-10.10975503440072
31
0
0
LINE
5
298
100
AcDbEntity
8
0
100
AcDbLine
10
22.066311375120069
20
-10.10975503440072
30
0
11
21.982750425120056
21
-9.9365000844007216
31
0
0
LINE
5
299
100
AcDbEntity
8
0
100
AcDbLine
10
21.982750425120056
20
-9.9365000844007216
30
0
11
21.894055087620046
21
-9.7508008344007226
31
0
0
LINE
5
300
100
AcDbEntity
8
0
100
AcDbLine
10
21.894055087620046
20
-9.7508008344007226
30
0
11
21.454636162620069
21
-8.8264031844007214
31
0
0
LINE
5
301
100
AcDbEntity
8
0
100
AcDbLine
10
21.454636162620069
20
-8.8264031844007214
30
0
11
21.289845712620053
21
-8.8252411719007302
31
0
0
LINE
5
302
100
AcDbEntity
8
0
100
AcDbLine
10
21.289845712620053
20
-8.8252411719007302
30
0
11
21.125066400120058
21
-8.8240828719007229
31
0
0
LINE
5
303
100
AcDbEntity
8
0
100
AcDbLine
10
21.125066400120058
20
-9.9226450344007215
30
0
11
21.125066400120058
21
-11.02119977190072
31
0
0
LINE
5
304
100
AcDbEntity
8
0
100
AcDbLine
10
21.125066400120058
20
-8.8240828719007229
30
0
11
21.125066400120058
21
-9.9226450344007215
31
0
0
LINE
5
305
100
AcDbEntity
8
0
100
AcDbLine
10
23.165244787620054
20
-11.02119977190072
30
0
11
23.792995125120054
21
-11.02119977190072
31
0
0
LINE
5
306
100
AcDbEntity
8
0
100
AcDbLine
10
23.792995125120054
20
-11.02119977190072
30
0
11
24.42073803762004
21
-11.021199771900728
31
0
0
LINE
5
307
100
AcDbEntity
8
0
100
AcDbLine
10
24.42073803762004
20
-11.021199771900728
30
0
11
24.42073803762004
21
-10.891470171900728
31
0
0
LINE
5
308
100
AcDbEntity
8
0
100
AcDbLine
10
24.42073803762004
20
-10.891470171900728
30
0
11
24.42073803762004
21
-10.761733146900728
31
0
0
LINE
5
309
100
AcDbEntity
8
0
100
AcDbLine
10
24.42073803762004
20
-10.761733146900728
30
0
11
23.910699937620059
21
-10.773765359400716
31
0
0
LINE
5
310
100
AcDbEntity
8
0
100
AcDbLine
10
23.910699937620059
20
-10.773765359400716
30
0
11
23.40065070012006
21
-10.785793859400712
31
0
0
LINE
5
311
100
AcDbEntity
8
0
100
AcDbLine
10
23.40065070012006
20
-10.785793859400712
30
0
11
23.391892912620062
21
-10.369908471900718
31
0
0
LINE
5
312
100
AcDbEntity
8
0
100
AcDbLine
10
23.391892912620062
20
-10.369908471900718
30
0
11
23.383135125120063
21
-9.9540267969007221
31
0
0
LINE
5
313
100
AcDbEntity
8
0
100
AcDbLine
10
23.383135125120063
20
-9.9540267969007221
30
0
11
23.854856512620056
21
-9.9540267969007221
31
0
0
LINE
5
314
100
AcDbEntity
8
0
100
AcDbLine
10
23.854856512620056
20
-9.9540267969007221
30
0
11
24.326577900120032
21
-9.9540267969007257
31
0
0
LINE
5
315
100
AcDbEntity
8
0
100
AcDbLine
10
24.326577900120032
20
-9.9540267969007257
30
0
11
24.326577900120032
21
-9.8441739219007225
31
0
0
LINE
5
316
100
AcDbEntity
8
0
100
AcDbLine
10
24.326577900120032
20
-9.8441739219007225
30
0
11
24.326577900120032
21
-9.7343173344007283
31
0
0
LINE
5
317
100
AcDbEntity
8
0
100
AcDbLine
10
24.326577900120032
20
-9.7343173344007283
30
0
11
23.855762362620041
21
-9.7343173344007123
31
0
0
LINE
5
318
100
AcDbEntity
8
0
100
AcDbLine
10
23.855762362620041
20
-9.7343173344007123
30
0
11
23.384957962620057
21
-9.7343173344007123
31
0
0
LINE
5
319
100
AcDbEntity
8
0
100
AcDbLine
10
23.384957962620057
20
-9.7343173344007123
30
0
11
23.384957962620057
21
-9.3890585469007206
31
0
0
LINE
5
320
100
AcDbEntity
8
0
100
AcDbLine
10
23.384957962620057
20
-9.3890585469007206
30
0
11
23.384957962620057
21
-9.0437960469007308
31
0
0
LINE
5
321
100
AcDbEntity
8
0
100
AcDbLine
10
23.384957962620057
20
-9.0437960469007308
30
0
11
23.887158975120055
21
-9.0437960469007308
31
0
0
LINE
5
322
100
AcDbEntity
8
0
100
AcDbLine
10
23.887158975120055
20
-9.0437960469007308
30
0
11
24.389356275120029
21
-9.0437960469007415
31
0
0
LINE
5
323
100
AcDbEntity
8
0
100
AcDbLine
10
24.389356275120029
20
-9.0437960469007415
30
0
11
24.389356275120029
21
-8.9339394594007224
31
0
0
LINE
5
324
100
AcDbEntity
8
0
100
AcDbLine
10
24.389356275120029
20
-8.9339394594007224
30
0
11
24.389356275120029
21
-8.8240828719007265
31
0
0
LINE
5
325
100
AcDbEntity
8
0
100
AcDbLine
10
24.389356275120029
20
-8.8240828719007265
30
0
11
23.777294962620044
21
-8.8240828719007229
31
0
0
LINE
5
326
100
AcDbEntity
8
0
100
AcDbLine
10
23.777294962620044
20
-8.8240828719007229
30
0
11
23.165244787620054
21
-8.8240828719007229
31
0
0
LINE
5
327
100
AcDbEntity
8
0
100
AcDbLine
10
23.165244787620054
20
-9.9226450344007215
30
0
11
23.165244787620054
21
-11.02119977190072
31
0
0
LINE
5
328
100
AcDbEntity
8
0
100
AcDbLine
10
23.165244787620054
20
-8.8240828719007229
30
0
11
23.165244787620054
21
-9.9226450344007215
31
0
0
LINE
5
329
100
AcDbEntity
8
0
100
AcDbLine
10
25.686670837620028
20
-11.00938288440072
30
0
11
25.803744525120038
21
-10.968200121900722
31
0
0
LINE
5
330
100
AcDbEntity
8
0
100
AcDbLine
10
25.803744525120038
20
-10.968200121900722
30
0
11
25.903729575120042
21
-10.914435696900719
31
0
0
LINE
5
331
100
AcDbEntity
8
0
100
AcDbLine
10
25.903729575120042
20
-10.914435696900719
30
0
11
25.989506887620053
21
-10.846203659400722
31
0
0
LINE
5
332
100
AcDbEntity
8
0
100
AcDbLine
10
25.989506887620053
20
-10.846203659400722
30
0
11
26.063946225120045
21
-10.761614346900725
31
0
0
LINE
5
333
100
AcDbEntity
8
0
100
AcDbLine
10
26.063946225120045
20
-10.761614346900725
30
0
11
26.125974675120034
21
-10.67853973440072
31
0
0
LINE
5
334
100
AcDbEntity
8
0
100
AcDbLine
10
26.140275225120035
20
-10.506064409400718
30
0
11
26.14530566262005
21
-10.419403521900726
31
0
0
LINE
5
335
100
AcDbEntity
8
0
100
AcDbLine
10
26.14530566262005
20
-10.419403521900726
30
0
11
26.145023512620035
21
-10.341738021900719
31
0
0
LINE
5
336
100
AcDbEntity
8
0
100
AcDbLine
10
26.145023512620035
20
-10.341738021900719
30
0
11
26.139139200120034
21
-10.271902184400739
31
0
0
LINE
5
337
100
AcDbEntity
8
0
100
AcDbLine
10
26.139139200120034
20
-10.271902184400739
30
0
11
26.127366862620036
21
-10.208726571900719
31
0
0
LINE
5
338
100
AcDbEntity
8
0
100
AcDbLine
10
26.127366862620036
20
-10.208726571900719
30
0
11
26.085007237620033
21
-10.097678271900726
31
0
0
LINE
5
339
100
AcDbEntity
8
0
100
AcDbLine
10
26.085007237620033
20
-10.097678271900726
30
0
11
26.015642887620043
21
-9.9992376219007291
31
0
0
LINE
5
340
100
AcDbEntity
8
0
100
AcDbLine
10
26.015642887620043
20
-9.9992376219007291
30
0
11
25.930110600120049
21
-9.9113330469007259
31
0
0
LINE
5
341
100
AcDbEntity
8
0
100
AcDbLine
10
25.930110600120049
20
-9.9113330469007259
30
0
11
25.839391950120039
21
-9.8512091094007292
31
0
0
LINE
5
342
100
AcDbEntity
8
0
100
AcDbLine
10
25.839391950120039
20
-9.8512091094007292
30
0
11
25.781413837620022
21
-9.8262685344007235
31
0
0
LINE
5
343
100
AcDbEntity
8
0
100
AcDbLine
10
25.781413837620022
20
-9.8262685344007235
30
0
11
25.709324512620046
21
-9.8019256719007188
31
0
0
LINE
5
344
100
AcDbEntity
8
0
100
AcDbLine
10
25.709324512620046
20
-9.8019256719007188
30
0
11
25.618854600120038
21
-9.7760606844007381
31
0
0
LINE
5
345
100
AcDbEntity
8
0
100
AcDbLine
10
25.618854600120038
20
-9.7760606844007381
30
0
11
25.505738437620053
21
-9.7465611594007324
31
0
0
LINE
5
346
100
AcDbEntity
8
0
100
AcDbLine
10
25.505738437620053
20
-9.7465611594007324
30
0
11
25.396542675120024
21
-9.7168574469007201
31
0
0
LINE
5
347
100
AcDbEntity
8
0
100
AcDbLine
10
25.396542675120024
20
-9.7168574469007201
30
0
11
25.305066675120038
21
-9.6874618719007355
31
0
0
LINE
5
348
100
AcDbEntity
8
0
100
AcDbLine
10
25.305066675120038
20
-9.6874618719007355
30
0
11
25.229784600120048
21
-9.6574537344007272
31
0
0
LINE
5
349
100
AcDbEntity
8
0
100
AcDbLine
10
25.229784600120048
20
-9.6574537344007272
30
0
11
25.169181750120053
21
-9.62591233440072
31
0
0
LINE
5
350
100
AcDbEntity
8
0
100
AcDbLine
10
25.169181750120053
20
-9.62591233440072
30
0
11
25.121728575120052
21
-9.5919095469007374
31
0
0
LINE
5
351
100
AcDbEntity
8
0
100
AcDbLine
10
25.121728575120052
20
-9.5919095469007374
30
0
11
25.085910375120054
21
-9.5545283844007294
31
0
0
LINE
5
352
100
AcDbEntity
8
0
100
AcDbLine
10
25.085910375120054
20
-9.5545283844007294
30
0
11
25.060205025120041
21
-9.5128444344007317
31
0
0
LINE
5
353
100
AcDbEntity
8
0
100
AcDbLine
10
25.060205025120041
20
-9.5128444344007317
30
0
11
25.043090400120036
21
-9.4659332844007267
31
0
0
LINE
5
354
100
AcDbEntity
8
0
100
AcDbLine
10
25.043090400120036
20
-9.4659332844007267
30
0
11
25.018617600120052
21
-9.3744312969007204
31
0
0
LINE
5
355
100
AcDbEntity
8
0
100
AcDbLine
10
25.018617600120052
20
-9.3744312969007204
30
0
11
25.049999362620028
21
-9.2578773594007391
31
0
0
LINE
5
356
100
AcDbEntity
8
0
100
AcDbLine
10
25.049999362620028
20
-9.2578773594007391
30
0
11
25.09356555012004
21
-9.1578106344007217
31
0
0
LINE
5
357
100
AcDbEntity
8
0
100
AcDbLine
10
25.09356555012004
20
-9.1578106344007217
30
0
11
25.164336937620043
21
-9.0804421344007231
31
0
0
LINE
5
358
100
AcDbEntity
8
0
100
AcDbLine
10
25.164336937620043
20
-9.0804421344007231
30
0
11
25.262469450120033
21
-9.0256530594007209
31
0
0
LINE
5
359
100
AcDbEntity
8
0
100
AcDbLine
10
25.262469450120033
20
-9.0256530594007209
30
0
11
25.388111587620045
21
-8.9933246094007284
31
0
0
LINE
5
360
100
AcDbEntity
8
0
100
AcDbLine
10
25.388111587620045
20
-8.9933246094007284
30
0
11
25.534985512620043
21
-8.9710533219007189
31
0
0
LINE
5
361
100
AcDbEntity
8
0
100
AcDbLine
10
25.534985512620043
20
-8.9710533219007189
30
0
11
25.723320637620034
21
-9.0206263344007294
31
0
0
ARC
5
362
100
AcDbEntity
8
0
100
AcDbCircle
10
25.234364220188947
20
-11.144605903468477
30
0
40
2.1795338006014626
210
0
220
-0
230
1
100
AcDbArc
50
70.369996697027958
51
77.035934436230022
0
LINE
5
363
100
AcDbEntity
8
0
100
AcDbLine
10
25.966567350120037
20
-9.0917429844007245
30
0
11
26.021493787620045
21
-9.1132866219007251
31
0
0
LINE
5
364
100
AcDbEntity
8
0
100
AcDbLine
10
26.021493787620045
20
-9.1132866219007251
30
0
11
26.021493787620045
21
-8.987507121900741
31
0
0
LINE
5
365
100
AcDbEntity
8
0
100
AcDbLine
10
26.021493787620045
20
-8.987507121900741
30
0
11
26.021493787620045
21
-8.8617313344007282
31
0
0
LINE
5
366
100
AcDbEntity
8
0
100
AcDbLine
10
26.021493787620045
20
-8.8617313344007282
30
0
11
25.87240721262004
21
-8.8286715219007323
31
0
0
LINE
5
367
100
AcDbEntity
8
0
100
AcDbLine
10
25.87240721262004
20
-8.8286715219007323
30
0
11
25.770874050120035
21
-8.8071612969007234
31
0
0
LINE
5
368
100
AcDbEntity
8
0
100
AcDbLine
10
25.770874050120035
20
-8.8071612969007234
30
0
11
25.682353200120048
21
-8.790822584400722
31
0
0
LINE
5
369
100
AcDbEntity
8
0
100
AcDbLine
10
25.682353200120048
20
-8.790822584400722
30
0
11
25.604320162620049
21
-8.7795031719007266
31
0
0
LINE
5
370
100
AcDbEntity
8
0
100
AcDbLine
10
25.604320162620049
20
-8.7795031719007266
30
0
11
25.534261575120052
21
-8.7730471344007306
31
0
0
LINE
5
371
100
AcDbEntity
8
0
100
AcDbLine
10
25.534261575120052
20
-8.7730471344007306
30
0
11
25.407995737620034
21
-8.7741126219007306
31
0
0
LINE
5
372
100
AcDbEntity
8
0
100
AcDbLine
10
25.407995737620034
20
-8.7741126219007306
30
0
11
25.283422800120036
21
-8.7927939219007261
31
0
0
LINE
5
373
100
AcDbEntity
8
0
100
AcDbLine
10
25.283422800120036
20
-8.7927939219007261
30
0
11
25.107487425120034
21
-8.8293137844007177
31
0
0
LINE
5
374
100
AcDbEntity
8
0
100
AcDbLine
10
25.107487425120034
20
-8.8293137844007177
30
0
11
24.994846462620039
21
-8.9282184969007403
31
0
0
LINE
5
375
100
AcDbEntity
8
0
100
AcDbLine
10
24.994846462620039
20
-8.9282184969007403
30
0
11
24.904565887620038
21
-9.0236780094007223
31
0
0
LINE
5
376
100
AcDbEntity
8
0
100
AcDbLine
10
24.904565887620038
20
-9.0236780094007223
30
0
11
24.843294787620039
21
-9.1286006844007357
31
0
0
LINE
5
377
100
AcDbEntity
8
0
100
AcDbLine
10
24.843294787620039
20
-9.1286006844007357
30
0
11
24.808430700120038
21
-9.2490638844007265
31
0
0
LINE
5
378
100
AcDbEntity
8
0
100
AcDbLine
10
24.808430700120038
20
-9.2490638844007265
30
0
11
24.797389725120045
21
-9.3911523969007273
31
0
0
LINE
5
379
100
AcDbEntity
8
0
100
AcDbLine
10
24.797389725120045
20
-9.3911523969007273
30
0
11
24.797393437620052
21
-9.5521969344007385
31
0
0
LINE
5
380
100
AcDbEntity
8
0
100
AcDbLine
10
24.797393437620052
20
-9.5521969344007385
30
0
11
24.84937215012004
21
-9.6617490969007243
31
0
0
LINE
5
381
100
AcDbEntity
8
0
100
AcDbLine
10
24.84937215012004
20
-9.6617490969007243
30
0
11
24.880683375120043
21
-9.7161817719007253
31
0
0
LINE
5
382
100
AcDbEntity
8
0
100
AcDbLine
10
24.880683375120043
20
-9.7161817719007253
30
0
11
24.921015975120046
21
-9.7658067594007196
31
0
0
LINE
5
383
100
AcDbEntity
8
0
100
AcDbLine
10
24.921015975120046
20
-9.7658067594007196
30
0
11
24.971108737620035
21
-9.8110695594007247
31
0
0
LINE
5
384
100
AcDbEntity
8
0
100
AcDbLine
10
24.971108737620035
20
-9.8110695594007247
30
0
11
25.031704162620048
21
-9.8524008219007229
31
0
0
LINE
5
385
100
AcDbEntity
8
0
100
AcDbLine
10
25.031704162620048
20
-9.8524008219007229
30
0
11
25.10352990012003
21
-9.8902534719007207
31
0
0
LINE
5
386
100
AcDbEntity
8
0
100
AcDbLine
10
25.10352990012003
20
-9.8902534719007207
30
0
11
25.187321025120035
21
-9.9250544469007274
31
0
0
LINE
5
387
100
AcDbEntity
8
0
100
AcDbLine
10
25.187321025120035
20
-9.9250544469007274
30
0
11
25.28382003762005
21
-9.9572529594007246
31
0
0
LINE
5
388
100
AcDbEntity
8
0
100
AcDbLine
10
25.28382003762005
20
-9.9572529594007246
30
0
11
25.393758300120048
21
-9.9872833719007392
31
0
0
LINE
5
389
100
AcDbEntity
8
0
100
AcDbLine
10
25.393758300120048
20
-9.9872833719007392
30
0
11
25.536076987620042
21
-10.025529546900728
31
0
0
LINE
5
390
100
AcDbEntity
8
0
100
AcDbLine
10
25.536076987620042
20
-10.025529546900728
30
0
11
25.649642362620042
21
-10.063567821900715
31
0
0
LINE
5
391
100
AcDbEntity
8
0
100
AcDbLine
10
25.649642362620042
20
-10.063567821900715
30
0
11
25.737461550120038
21
-10.10412317190073
31
0
0
LINE
5
392
100
AcDbEntity
8
0
100
AcDbLine
10
25.737461550120038
20
-10.10412317190073
30
0
11
25.802556525120028
21
-10.149902009400725
31
0
0
LINE
5
393
100
AcDbEntity
8
0
100
AcDbLine
10
25.802556525120028
20
-10.149902009400725
30
0
11
25.847938125120038
21
-10.203625596900725
31
0
0
LINE
5
394
100
AcDbEntity
8
0
100
AcDbLine
10
25.847938125120038
20
-10.203625596900725
30
0
11
25.876617187620056
21
-10.268004059400727
31
0
0
LINE
5
395
100
AcDbEntity
8
0
100
AcDbLine
10
25.876617187620056
20
-10.268004059400727
30
0
11
25.891615687620039
21
-10.34575865940073
31
0
0
LINE
5
396
100
AcDbEntity
8
0
100
AcDbLine
10
25.891615687620039
20
-10.34575865940073
30
0
11
25.89594817512004
21
-10.43960323440073
31
0
0
LINE
5
397
100
AcDbEntity
8
0
100
AcDbLine
10
25.89594817512004
20
-10.43960323440073
30
0
11
25.89594817512004
21
-10.57695830940073
31
0
0
LINE
5
398
100
AcDbEntity
8
0
100
AcDbLine
10
25.89594817512004
20
-10.57695830940073
30
0
11
25.815193875120038
21
-10.67293757190072
31
0
0
LINE
5
399
100
AcDbEntity
8
0
100
AcDbLine
10
25.815193875120038
20
-10.67293757190072
30
0
11
25.734424725120057
21
-10.768913121900725
31
0
0
LINE
5
400
100
AcDbEntity
8
0
100
AcDbLine
10
25.734424725120057
20
-10.768913121900725
30
0
11
25.603328925120039
21
-10.804256121900726
31
0
0
LINE
5
401
100
AcDbEntity
8
0
100
AcDbLine
10
25.603328925120039
20
-10.804256121900726
30
0
11
25.472221987620046
21
-10.839599121900726
31
0
0
LINE
5
402
100
AcDbEntity
8
0
100
AcDbLine
10
25.472221987620046
20
-10.839599121900726
30
0
11
25.307806500120055
21
-10.820316396900729
31
0
0
ARC
5
403
100
AcDbEntity
8
0
100
AcDbCircle
10
25.458140769554909
20
-9.6485164091911191
30
0
40
1.1814040814906455
210
0
220
0
230
1
100
AcDbArc
50
245.52235309633261
51
262.68926158454576
0
LINE
5
404
100
AcDbEntity
8
0
100
AcDbLine
10
24.968639925120044
20
-10.723739421900721
30
0
11
24.793870275120042
21
-10.646448884400728
31
0
0
LINE
5
405
100
AcDbEntity
8
0
100
AcDbLine
10
24.793870275120042
20
-10.646448884400728
30
0
11
24.803478225120053
21
-10.778899746900725
31
0
0
LINE
5
406
100
AcDbEntity
8
0
100
AcDbLine
10
24.803478225120053
20
-10.778899746900725
30
0
11
24.813086175120034
21
-10.911343184400724
31
0
0
LINE
5
407
100
AcDbEntity
8
0
100
AcDbLine
10
24.813086175120034
20
-10.911343184400724
30
0
11
24.975110812620049
21
-10.965115034400725
31
0
0
ARC
5
408
100
AcDbEntity
8
0
100
AcDbCircle
10
25.450183655593076
20
-9.4877518833675563
30
0
40
1.5518685788948514
210
0
220
0
230
1
100
AcDbArc
50
252.17386624091898
51
265.78277587812187
0
LINE
5
409
100
AcDbEntity
8
0
100
AcDbLine
10
25.336062337620035
20
-11.035418646900721
30
0
11
25.534985512620043
21
-11.051950409400725
31
0
0
LINE
5
410
100
AcDbEntity
8
0
100
AcDbLine
10
25.534985512620043
20
-11.051950409400725
30
0
11
25.686667125120053
21
-11.00938288440072
31
0
0
LINE
5
411
100
AcDbEntity
8
0
100
AcDbLine
10
26.125974675120034
20
-10.67853973440072
30
0
11
26.140275225120035
21
-10.506064409400718
31
0
0
LINE
5
412
100
AcDbEntity
8
0
100
AcDbLine
10
27.758683912620032
20
-9.916315221900728
30
0
11
27.832172850120042
21
-9.6995831844007299
31
0
0
LINE
5
413
100
AcDbEntity
8
0
100
AcDbLine
10
27.832172850120042
20
-9.6995831844007299
30
0
11
27.900731587620029
21
-9.4964574594007303
31
0
0
LINE
5
414
100
AcDbEntity
8
0
100
AcDbLine
10
27.900731587620029
20
-9.4964574594007303
30
0
11
27.962860275120033
21
-9.3114598719007411
31
0
0
LINE
5
415
100
AcDbEntity
8
0
100
AcDbLine
10
27.962860275120033
20
-9.3114598719007411
30
0
11
28.017051637620032
21
-9.1490936844007322
31
0
0
LINE
5
416
100
AcDbEntity
8
0
100
AcDbLine
10
28.017051637620032
20
-9.1490936844007322
30
0
11
28.061813250120036
21
-9.013877009400721
31
0
0
LINE
5
417
100
AcDbEntity
8
0
100
AcDbLine
10
28.061813250120036
20
-9.013877009400721
30
0
11
28.095637837620025
21
-8.9103205344007286
31
0
0
LINE
5
418
100
AcDbEntity
8
0
100
AcDbLine
10
28.095637837620025
20
-8.9103205344007286
30
0
11
28.107981900120031
21
-8.8718256219007419
31
0
0
LINE
5
419
100
AcDbEntity
8
0
100
AcDbLine
10
28.107981900120031
20
-8.8718256219007419
30
0
11
28.117032975120033
21
-8.8429386594007404
31
0
0
LINE
5
420
100
AcDbEntity
8
0
100
AcDbLine
10
28.117032975120033
20
-8.8429386594007404
30
0
11
28.122598012620035
21
-8.8242202344007303
31
0
0
LINE
5
421
100
AcDbEntity
8
0
100
AcDbLine
10
28.122598012620035
20
-8.8242202344007303
30
0
11
28.124491387620036
21
-8.81623464690073
31
0
0
LINE
5
422
100
AcDbEntity
8
0
100
AcDbLine
10
28.124491387620036
20
-8.81623464690073
30
0
11
28.115020800120032
21
-8.8070944719007276
31
0
0
LINE
5
423
100
AcDbEntity
8
0
100
AcDbLine
10
28.115020800120032
20
-8.8070944719007276
30
0
11
28.089267187620031
21
-8.7996100719007408
31
0
0
LINE
5
424
100
AcDbEntity
8
0
100
AcDbLine
10
28.089267187620031
20
-8.7996100719007408
30
0
11
28.051158375120046
21
-8.7945536469007397
31
0
0
LINE
5
425
100
AcDbEntity
8
0
100
AcDbLine
10
28.051158375120046
20
-8.7945536469007397
30
0
11
28.004637037620039
21
-8.7926936844007404
31
0
0
LINE
5
426
100
AcDbEntity
8
0
100
AcDbLine
10
28.004637037620039
20
-8.7926936844007404
30
0
11
27.884812387620038
21
-8.7926973969007278
31
0
0
LINE
5
427
100
AcDbEntity
8
0
100
AcDbLine
10
27.884812387620038
20
-8.7926973969007278
30
0
11
27.575832150120021
21
-9.742161846900725
31
0
0
LINE
5
428
100
AcDbEntity
8
0
100
AcDbLine
10
27.575832150120021
20
-9.742161846900725
30
0
11
27.266848200120037
21
-10.691633721900724
31
0
0
LINE
5
429
100
AcDbEntity
8
0
100
AcDbLine
10
27.266848200120037
20
-10.691633721900724
30
0
11
27.227072475120039
21
-10.597473584400722
31
0
0
LINE
5
430
100
AcDbEntity
8
0
100
AcDbLine
10
27.227072475120039
20
-10.597473584400722
30
0
11
27.213124612620039
21
-10.561098509400715
31
0
0
LINE
5
431
100
AcDbEntity
8
0
100
AcDbLine
10
27.213124612620039
20
-10.561098509400715
30
0
11
27.188610975120042
21
-10.493419634400723
31
0
0
LINE
5
432
100
AcDbEntity
8
0
100
AcDbLine
10
27.188610975120042
20
-10.493419634400723
30
0
11
27.154882912620035
21
-10.398331371900724
31
0
0
LINE
5
433
100
AcDbEntity
8
0
100
AcDbLine
10
27.154882912620035
20
-10.398331371900724
30
0
11
27.113299200120036
21
-10.279720709400731
31
0
0
LINE
5
434
100
AcDbEntity
8
0
100
AcDbLine
10
27.113299200120036
20
-10.279720709400731
30
0
11
27.065226037620029
21
-10.141489484400736
31
0
0
LINE
5
435
100
AcDbEntity
8
0
100
AcDbLine
10
27.065226037620029
20
-10.141489484400736
30
0
11
27.012018487620033
21
-9.9875321094007301
31
0
0
LINE
5
436
100
AcDbEntity
8
0
100
AcDbLine
10
27.012018487620033
20
-9.9875321094007301
30
0
11
26.955035325120036
21
-9.8217355719007227
31
0
0
LINE
5
437
100
AcDbEntity
8
0
100
AcDbLine
10
26.955035325120036
20
-9.8217355719007227
30
0
11
26.895635325120036
21
-9.6480017094007202
31
0
0
LINE
5
438
100
AcDbEntity
8
0
100
AcDbLine
10
26.895635325120036
20
-9.6480017094007202
30
0
11
26.603985037620038
21
-8.7926973969007278
31
0
0
LINE
5
439
100
AcDbEntity
8
0
100
AcDbLine
10
26.603985037620038
20
-8.7926973969007278
30
0
11
26.483258250120052
21
-8.7926973969007278
31
0
0
LINE
5
440
100
AcDbEntity
8
0
100
AcDbLine
10
26.483258250120052
20
-8.7926973969007278
30
0
11
26.362527750120034
21
-8.7926973969007278
31
0
0
LINE
5
441
100
AcDbEntity
8
0
100
AcDbLine
10
26.362527750120034
20
-8.7926973969007278
30
0
11
26.384554012620033
21
-8.8633165719007234
31
0
0
LINE
5
442
100
AcDbEntity
8
0
100
AcDbLine
10
26.384554012620033
20
-8.8633165719007234
30
0
11
26.388630337620029
21
-8.875801709400724
31
0
0
LINE
5
443
100
AcDbEntity
8
0
100
AcDbLine
10
26.388630337620029
20
-8.875801709400724
30
0
11
26.39618898762004
21
-8.8983254469007314
31
0
0
LINE
5
444
100
AcDbEntity
8
0
100
AcDbLine
10
26.39618898762004
20
-8.8983254469007314
30
0
11
26.407036912620036
21
-8.9303197719007237
31
0
0
LINE
5
445
100
AcDbEntity
8
0
100
AcDbLine
10
26.407036912620036
20
-8.9303197719007237
30
0
11
26.42097735012004
21
-8.9712315219007355
31
0
0
LINE
5
446
100
AcDbEntity
8
0
100
AcDbLine
10
26.42097735012004
20
-8.9712315219007355
30
0
11
26.457382125120045
21
-9.0775612344007399
31
0
0
LINE
5
447
100
AcDbEntity
8
0
100
AcDbLine
10
26.457382125120045
20
-9.0775612344007399
30
0
11
26.503866337620032
21
-9.2128447344007309
31
0
0
LINE
5
448
100
AcDbEntity
8
0
100
AcDbLine
10
26.503866337620032
20
-9.2128447344007309
30
0
11
26.558885587620029
21
-9.3726084594007268
31
0
0
LINE
5
449
100
AcDbEntity
8
0
100
AcDbLine
10
26.558885587620029
20
-9.3726084594007268
30
0
11
26.620902900120029
21
-9.5523751344007337
31
0
0
LINE
5
450
100
AcDbEntity
8
0
100
AcDbLine
10
26.620902900120029
20
-9.5523751344007337
30
0
11
26.688381300120039
21
-9.7476711969007219
31
0
0
LINE
5
451
100
AcDbEntity
8
0
100
AcDbLine
10
26.688381300120039
20
-9.7476711969007219
30
0
11
26.759780100120054
21
-9.9540305094007149
31
0
0
LINE
5
452
100
AcDbEntity
8
0
100
AcDbLine
10
27.112979925120033
20
-10.974121559400727
30
0
11
27.252915187620044
21
-10.983484484400732
31
0
0
LINE
5
453
100
AcDbEntity
8
0
100
AcDbLine
10
27.252915187620044
20
-10.983484484400732
30
0
11
27.392835600120033
21
-10.99285483440072
31
0
0
LINE
5
454
100
AcDbEntity
8
0
100
AcDbLine
10
27.392835600120033
20
-10.99285483440072
30
0
11
27.758680200120036
21
-9.916315221900728
31
0
0
LINE
5
455
100
AcDbEntity
8
0
100
AcDbLine
10
26.759780100120054
20
-9.9540305094007149
30
0
11
27.112979925120033
21
-10.974121559400727
31
0
0
LINE
5
456
100
AcDbEntity
8
0
100
AcDbLine
10
28.600225987620036
20
-10.989810584400722
30
0
11
28.730735212620033
21
-10.989810584400722
31
0
0
LINE
5
457
100
AcDbEntity
8
0
100
AcDbLine
10
28.730735212620033
20
-10.989810584400722
30
0
11
28.710167962620019
21
-10.401297659400644
31
0
0
ARC
5
458
100
AcDbEntity
8
0
100
AcDbCircle
10
60.303081981139584
20
-9.257778047091918
30
0
40
31.613602345909651
210
0
220
0
230
1
100
AcDbArc
50
180.08149335192414
51
182.07294134696141
0
LINE
5
459
100
AcDbEntity
8
0
100
AcDbLine
10
28.689511612620034
20
-9.3027429219007303
30
0
11
28.689422512620034
21
-8.7926973969007278
31
0
0
LINE
5
460
100
AcDbEntity
8
0
100
AcDbLine
10
28.689422512620034
20
-8.7926973969007278
30
0
11
28.579569637620033
21
-8.7926973969007278
31
0
0
LINE
5
461
100
AcDbEntity
8
0
100
AcDbLine
10
28.579569637620033
20
-8.7926973969007278
30
0
11
28.469705625120042
21
-8.7926973969007278
31
0
0
LINE
5
462
100
AcDbEntity
8
0
100
AcDbLine
10
28.469705625120042
20
-8.7926973969007278
30
0
11
28.469705625120042
21
-9.8912558469007212
31
0
0
LINE
5
463
100
AcDbEntity
8
0
100
AcDbLine
10
28.469705625120042
20
-10.989810584400722
30
0
11
28.600225987620036
21
-10.989810584400722
31
0
0
LINE
5
464
100
AcDbEntity
8
0
100
AcDbLine
10
28.469705625120042
20
-9.8912558469007212
30
0
11
28.469705625120042
21
-10.989810584400722
31
0
0
LINE
5
465
100
AcDbEntity
8
0
100
AcDbLine
10
29.887023037620025
20
-10.989810584400722
30
0
11
30.478505962620027
21
-10.989810584400722
31
0
0
LINE
5
466
100
AcDbEntity
8
0
100
AcDbLine
10
30.478505962620027
20
-10.989810584400722
30
0
11
30.478505962620027
21
-10.859743146900724
31
0
0
LINE
5
467
100
AcDbEntity
8
0
100
AcDbLine
10
30.478505962620027
20
-10.859743146900724
30
0
11
30.478505962620027
21
-10.729664571900715
31
0
0
LINE
5
468
100
AcDbEntity
8
0
100
AcDbLine
10
30.478505962620027
20
-10.729664571900715
30
0
11
29.992005112620028
21
-10.751917296900729
31
0
0
LINE
5
469
100
AcDbEntity
8
0
100
AcDbLine
10
29.992005112620028
20
-10.751917296900729
30
0
11
29.505496837620029
21
-10.774170021900725
31
0
0
LINE
5
470
100
AcDbEntity
8
0
100
AcDbLine
10
29.505496837620029
20
-10.774170021900725
30
0
11
29.505496837620029
21
-9.7834374219007394
31
0
0
LINE
5
471
100
AcDbEntity
8
0
100
AcDbLine
10
29.505496837620029
20
-9.7834374219007394
30
0
11
29.505496837620029
21
-8.7926973969007278
31
0
0
LINE
5
472
100
AcDbEntity
8
0
100
AcDbLine
10
29.505496837620029
20
-8.7926973969007278
30
0
11
29.379947512620035
21
-8.7926973969007278
31
0
0
LINE
5
473
100
AcDbEntity
8
0
100
AcDbLine
10
29.379947512620035
20
-8.7926973969007278
30
0
11
29.254398187620048
21
-8.7926973969007278
31
0
0
LINE
5
474
100
AcDbEntity
8
0
100
AcDbLine
10
29.254398187620048
20
-8.7926973969007278
30
0
11
29.254513275120033
21
-9.4439812719007286
31
0
0
ARC
5
475
100
AcDbEntity
8
0
100
AcDbCircle
10
53.383667775348854
20
-9.5415432002551377
30
0
40
24.129351736542304
210
0
220
0
230
1
100
AcDbArc
50
179.76833600721051
51
182.37757482367215
0
LINE
5
476
100
AcDbEntity
8
0
100
AcDbLine
10
29.295547537620045
20
-10.989810584400722
30
0
11
29.887023037620025
21
-10.989810584400722
31
0
0
LINE
5
477
100
AcDbEntity
8
0
100
AcDbLine
10
29.275087950120025
20
-10.542539721900681
30
0
11
29.295547537620045
21
-10.989810584400722
31
0
0
LINE
5
478
100
AcDbEntity
8
0
100
AcDbLine
10
31.388740425120034
20
-10.958421396900722
30
0
11
31.985097862620016
21
-10.958421396900722
31
0
0
LINE
5
479
100
AcDbEntity
8
0
100
AcDbLine
10
31.985097862620016
20
-10.958421396900722
30
0
11
31.985097862620016
21
-10.848572234400727
31
0
0
LINE
5
480
100
AcDbEntity
8
0
100
AcDbLine
10
31.985097862620016
20
-10.848572234400727
30
0
11
31.985097862620016
21
-10.73871193440073
31
0
0
LINE
5
481
100
AcDbEntity
8
0
100
AcDbLine
10
31.985097862620016
20
-10.73871193440073
30
0
11
31.498597012620031
21
-10.73871193440073
31
0
0
LINE
5
482
100
AcDbEntity
8
0
100
AcDbLine
10
31.498597012620031
20
-10.73871193440073
30
0
11
31.012092450120036
21
-10.73871193440073
31
0
0
LINE
5
483
100
AcDbEntity
8
0
100
AcDbLine
10
31.012092450120036
20
-10.73871193440073
30
0
11
31.012092450120036
21
-9.7657065219007304
31
0
0
LINE
5
484
100
AcDbEntity
8
0
100
AcDbLine
10
31.012092450120036
20
-9.7657065219007304
30
0
11
31.012092450120036
21
-8.7926973969007278
31
0
0
LINE
5
485
100
AcDbEntity
8
0
100
AcDbLine
10
31.012092450120036
20
-8.7926973969007278
30
0
11
30.88287888762002
21
-8.7926973969007278
31
0
0
LINE
5
486
100
AcDbEntity
8
0
100
AcDbLine
10
30.88287888762002
20
-8.7926973969007278
30
0
11
30.753669037620032
21
-8.7926973969007278
31
0
0
LINE
5
487
100
AcDbEntity
8
0
100
AcDbLine
10
30.753669037620032
20
-8.7926973969007278
30
0
11
30.772595362620034
21
-8.8633165719007234
31
0
0
LINE
5
488
100
AcDbEntity
8
0
100
AcDbLine
10
30.772595362620034
20
-8.8633165719007234
30
0
11
30.774525862620024
21
-8.87576458440072
31
0
0
LINE
5
489
100
AcDbEntity
8
0
100
AcDbLine
10
30.774525862620024
20
-8.87576458440072
30
0
11
30.776408100120026
21
-8.8981620969007231
31
0
0
LINE
5
490
100
AcDbEntity
8
0
100
AcDbLine
10
30.776408100120026
20
-8.8981620969007231
30
0
11
30.77822722512003
21
-8.9299633719007261
31
0
0
LINE
5
491
100
AcDbEntity
8
0
100
AcDbLine
10
30.77822722512003
20
-8.9299633719007261
30
0
11
30.779979525120027
21
-8.9706115344007227
31
0
0
LINE
5
492
100
AcDbEntity
8
0
100
AcDbLine
10
30.779979525120027
20
-8.9706115344007227
30
0
11
30.783231675120017
21
-9.076217309400727
31
0
0
LINE
5
493
100
AcDbEntity
8
0
100
AcDbLine
10
30.783231675120017
20
-9.076217309400727
30
0
11
30.786086587620012
21
-9.2105392719007195
31
0
0
LINE
5
494
100
AcDbEntity
8
0
100
AcDbLine
10
30.786086587620012
20
-9.2105392719007195
30
0
11
30.788466300120021
21
-9.3691409844007207
31
0
0
LINE
5
495
100
AcDbEntity
8
0
100
AcDbLine
10
30.788466300120021
20
-9.3691409844007207
30
0
11
30.790289137620039
21
-9.547574871900725
31
0
0
LINE
5
496
100
AcDbEntity
8
0
100
AcDbLine
10
30.790289137620039
20
-9.547574871900725
30
0
11
30.791477137620021
21
-9.7414007844007262
31
0
0
LINE
5
497
100
AcDbEntity
8
0
100
AcDbLine
10
30.791477137620021
20
-9.7414007844007262
30
0
11
30.79195233762001
21
-9.946182284400729
31
0
0
LINE
5
498
100
AcDbEntity
8
0
100
AcDbLine
10
30.792375562620045
20
-10.958421396900722
30
0
11
31.388740425120034
21
-10.958421396900722
31
0
0
LINE
5
499
100
AcDbEntity
8
0
100
AcDbLine
10
30.79195233762001
20
-9.946182284400729
30
0
11
30.792375562620045
21
-10.958421396900722
31
0
0
LINE
5
500
100
AcDbEntity
8
0
100
AcDbLine
10
32.926725225120038
20
-10.958421396900722
30
0
11
33.554471850120024
21
-10.958421396900722
31
0
0
LINE
5
501
100
AcDbEntity
8
0
100
AcDbLine
10
33.554471850120024
20
-10.958421396900722
30
0
11
33.554471850120024
21
-10.848572234400727
31
0
0
LINE
5
502
100
AcDbEntity
8
0
100
AcDbLine
10
33.554471850120024
20
-10.848572234400727
30
0
11
33.554471850120024
21
-10.73871193440073
31
0
0
LINE
5
503
100
AcDbEntity
8
0
100
AcDbLine
10
33.554471850120024
20
-10.73871193440073
30
0
11
33.052274550120018
21
-10.73871193440073
31
0
0
LINE
5
504
100
AcDbEntity
8
0
100
AcDbLine
10
33.052274550120018
20
-10.73871193440073
30
0
11
32.550069825120012
21
-10.73871193440073
31
0
0
LINE
5
505
100
AcDbEntity
8
0
100
AcDbLine
10
32.550069825120012
20
-10.73871193440073
30
0
11
32.550069825120012
21
-10.33494043440073
31
0
0
LINE
5
506
100
AcDbEntity
8
0
100
AcDbLine
10
32.550069825120012
20
-10.33494043440073
30
0
11
32.550069825120012
21
-9.9311763594007267
31
0
0
LINE
5
507
100
AcDbEntity
8
0
100
AcDbLine
10
32.550069825120012
20
-9.9311763594007267
30
0
11
32.695696350120038
21
-9.9112105344007286
31
0
0
LINE
5
508
100
AcDbEntity
8
0
100
AcDbLine
10
32.695696350120038
20
-9.9112105344007286
30
0
11
32.777898525120015
21
-9.9034625469007338
31
0
0
LINE
5
509
100
AcDbEntity
8
0
100
AcDbLine
10
32.777898525120015
20
-9.9034625469007338
30
0
11
32.894066362620009
21
-9.8971178844007213
31
0
0
LINE
5
510
100
AcDbEntity
8
0
100
AcDbLine
10
32.894066362620009
20
-9.8971178844007213
30
0
11
33.028752150120013
21
-9.8928299469007221
31
0
0
LINE
5
511
100
AcDbEntity
8
0
100
AcDbLine
10
33.028752150120013
20
-9.8928299469007221
30
0
11
33.166508175120022
21
-9.8912521344007249
31
0
0
LINE
5
512
100
AcDbEntity
8
0
100
AcDbLine
10
33.166508175120022
20
-9.8912521344007249
30
0
11
33.491693475120023
21
-9.8912558469007212
31
0
0
LINE
5
513
100
AcDbEntity
8
0
100
AcDbLine
10
33.491693475120023
20
-9.8912558469007212
30
0
11
33.491693475120023
21
-9.7813955469007272
31
0
0
LINE
5
514
100
AcDbEntity
8
0
100
AcDbLine
10
33.491693475120023
20
-9.7813955469007272
30
0
11
33.491693475120023
21
-9.6715463844007292
31
0
0
LINE
5
515
100
AcDbEntity
8
0
100
AcDbLine
10
33.491693475120023
20
-9.6715463844007292
30
0
11
33.005192625120031
21
-9.6715463844007292
31
0
0
LINE
5
516
100
AcDbEntity
8
0
100
AcDbLine
10
33.005192625120031
20
-9.6715463844007292
30
0
11
32.518684350120012
21
-9.6715463844007292
31
0
0
LINE
5
517
100
AcDbEntity
8
0
100
AcDbLine
10
32.518684350120012
20
-9.6715463844007292
30
0
11
32.518684350120012
21
-9.3450245844007256
31
0
0
LINE
5
518
100
AcDbEntity
8
0
100
AcDbLine
10
32.518684350120012
20
-9.3450245844007256
30
0
11
32.518684350120012
21
-9.0185102094007323
31
0
0
LINE
5
519
100
AcDbEntity
8
0
100
AcDbLine
10
32.518684350120012
20
-9.0185102094007323
30
0
11
33.020885362620021
21
-8.9957488719007284
31
0
0
LINE
5
520
100
AcDbEntity
8
0
100
AcDbLine
10
33.020885362620021
20
-8.9957488719007284
30
0
11
33.523082662620027
21
-8.9729912469007296
31
0
0
LINE
5
521
100
AcDbEntity
8
0
100
AcDbLine
10
33.523082662620027
20
-8.9729912469007296
30
0
11
33.523082662620027
21
-8.8671515844007214
31
0
0
LINE
5
522
100
AcDbEntity
8
0
100
AcDbLine
10
33.523082662620027
20
-8.8671515844007214
30
0
11
33.523082662620027
21
-8.7613082094007293
31
0
0
LINE
5
523
100
AcDbEntity
8
0
100
AcDbLine
10
33.523082662620027
20
-8.7613082094007293
30
0
11
32.911025062620041
21
-8.7613082094007293
31
0
0
LINE
5
524
100
AcDbEntity
8
0
100
AcDbLine
10
32.911025062620041
20
-8.7613082094007293
30
0
11
32.298971175120023
21
-8.7613082094007293
31
0
0
LINE
5
525
100
AcDbEntity
8
0
100
AcDbLine
10
32.298971175120023
20
-8.7613082094007293
30
0
11
32.298971175120023
21
-9.8598666594007263
31
0
0
LINE
5
526
100
AcDbEntity
8
0
100
AcDbLine
10
32.298971175120023
20
-10.958421396900722
30
0
11
32.926725225120038
21
-10.958421396900722
31
0
0
LINE
5
527
100
AcDbEntity
8
0
100
AcDbLine
10
32.298971175120023
20
-9.8598666594007263
30
0
11
32.298971175120023
21
-10.958421396900722
31
0
0
LINE
5
528
100
AcDbEntity
8
0
100
AcDbLine
10
35.485677225120028
20
-11.976121596900725
30
0
11
35.384596987620007
21
-12.028898496900723
31
0
0
LINE
5
529
100
AcDbEntity
8
0
100
AcDbLine
10
35.384596987620007
20
-12.028898496900723
30
0
11
35.28896670012
21
-12.099588209400714
31
0
0
LINE
5
530
100
AcDbEntity
8
0
100
AcDbLine
10
35.28896670012
20
-12.099588209400714
30
0
11
35.20013400012003
21
-12.186315921900729
31
0
0
LINE
5
531
100
AcDbEntity
8
0
100
AcDbLine
10
35.20013400012003
20
-12.186315921900729
30
0
11
35.119427962619994
21
-12.287195684400727
31
0
0
LINE
5
532
100
AcDbEntity
8
0
100
AcDbLine
10
35.119427962619994
20
-12.287195684400727
30
0
11
35.04818880012003
21
-12.400345259400719
31
0
0
LINE
5
533
100
AcDbEntity
8
0
100
AcDbLine
10
35.04818880012003
20
-12.400345259400719
30
0
11
34.987753012620011
21
-12.523882409400716
31
0
0
LINE
5
534
100
AcDbEntity
8
0
100
AcDbLine
10
34.987753012620011
20
-12.523882409400716
30
0
11
34.939453387620027
21
-12.655924896900718
31
0
0
LINE
5
535
100
AcDbEntity
8
0
100
AcDbLine
10
34.939453387620027
20
-12.655924896900718
30
0
11
34.904630137619996
21
-12.794586771900709
31
0
0
LINE
5
536
100
AcDbEntity
8
0
100
AcDbLine
10
34.904630137619996
20
-12.794586771900709
30
0
11
34.867805850120021
21
-12.982914471900715
31
0
0
LINE
5
537
100
AcDbEntity
8
0
100
AcDbLine
10
34.867805850120021
20
-12.982914471900715
30
0
11
34.881007500120049
21
-14.520895559400721
31
0
0
LINE
5
538
100
AcDbEntity
8
0
100
AcDbLine
10
34.881007500120049
20
-14.520895559400721
30
0
11
34.894220287620016
21
-16.058872934400711
31
0
0
LINE
5
539
100
AcDbEntity
8
0
100
AcDbLine
10
34.894220287620016
20
-16.058872934400711
30
0
11
34.940901262620024
21
-16.231504184400709
31
0
0
LINE
5
540
100
AcDbEntity
8
0
100
AcDbLine
10
34.940901262620024
20
-16.231504184400709
30
0
11
34.97983796262001
21
-16.356604296900716
31
0
0
LINE
5
541
100
AcDbEntity
8
0
100
AcDbLine
10
34.97983796262001
20
-16.356604296900716
30
0
11
35.025880387620028
21
-16.469705609400709
31
0
0
LINE
5
542
100
AcDbEntity
8
0
100
AcDbLine
10
35.025880387620028
20
-16.469705609400709
30
0
11
35.079344100120018
21
-16.571227634400707
31
0
0
LINE
5
543
100
AcDbEntity
8
0
100
AcDbLine
10
35.079344100120018
20
-16.571227634400707
30
0
11
35.140548375120034
21
-16.661578746900705
31
0
0
LINE
5
544
100
AcDbEntity
8
0
100
AcDbLine
10
35.140548375120034
20
-16.661578746900705
30
0
11
35.209808775119996
21
-16.741174746900711
31
0
0
LINE
5
545
100
AcDbEntity
8
0
100
AcDbLine
10
35.209808775119996
20
-16.741174746900711
30
0
11
35.287440862620002
21
-16.810431434400712
31
0
0
LINE
5
546
100
AcDbEntity
8
0
100
AcDbLine
10
35.287440862620002
20
-16.810431434400712
30
0
11
35.373767625120031
21
-16.869753471900715
31
0
0
LINE
5
547
100
AcDbEntity
8
0
100
AcDbLine
10
35.373767625120031
20
-16.869753471900715
30
0
11
35.469100912620007
21
-16.919564084400701
31
0
0
LINE
5
548
100
AcDbEntity
8
0
100
AcDbLine
10
35.469100912620007
20
-16.919564084400701
30
0
11
35.610342975120012
21
-16.983422796900701
31
0
0
LINE
5
549
100
AcDbEntity
8
0
100
AcDbLine
10
35.610342975120012
20
-16.983422796900701
30
0
11
35.831737912620021
21
-16.984113321900701
31
0
0
LINE
5
550
100
AcDbEntity
8
0
100
AcDbLine
10
35.831737912620021
20
-16.984113321900701
30
0
11
36.053136562620018
21
-16.984800134400707
31
0
0
LINE
5
551
100
AcDbEntity
8
0
100
AcDbLine
10
36.053136562620018
20
-16.984800134400707
30
0
11
36.216571950119999
21
-16.903359021900705
31
0
0
LINE
5
552
100
AcDbEntity
8
0
100
AcDbLine
10
36.216571950119999
20
-16.903359021900705
30
0
11
36.38000733762
21
-16.821914196900703
31
0
0
LINE
5
553
100
AcDbEntity
8
0
100
AcDbLine
10
36.38000733762
20
-16.821914196900703
30
0
11
36.488924662619993
21
-16.688995559400716
31
0
0
LINE
5
554
100
AcDbEntity
8
0
100
AcDbLine
10
36.488924662619993
20
-16.688995559400716
30
0
11
36.567083925120002
21
-16.582391121900713
31
0
0
LINE
5
555
100
AcDbEntity
8
0
100
AcDbLine
10
36.567083925120002
20
-16.582391121900713
30
0
11
36.631558912620001
21
-16.467879059400708
31
0
0
LINE
5
556
100
AcDbEntity
8
0
100
AcDbLine
10
36.631558912620001
20
-16.467879059400708
30
0
11
36.683355712619992
21
-16.341008084400706
31
0
0
LINE
5
557
100
AcDbEntity
8
0
100
AcDbLine
10
36.683355712619992
20
-16.341008084400706
30
0
11
36.723480412619992
21
-16.197312059400719
31
0
0
LINE
5
558
100
AcDbEntity
8
0
100
AcDbLine
10
36.723480412619992
20
-16.197312059400719
30
0
11
36.752939100120017
21
-16.032335984400707
31
0
0
LINE
5
559
100
AcDbEntity
8
0
100
AcDbLine
10
36.752939100120017
20
-16.032335984400707
30
0
11
36.772737862619998
21
-15.841617434400721
31
0
0
LINE
5
560
100
AcDbEntity
8
0
100
AcDbLine
10
36.772737862619998
20
-15.841617434400721
30
0
11
36.783879075120005
21
-15.620697696900709
31
0
0
LINE
5
561
100
AcDbEntity
8
0
100
AcDbLine
10
36.783879075120005
20
-15.620697696900709
30
0
11
36.787368825120012
21
-15.365114346900711
31
0
0
LINE
5
562
100
AcDbEntity
8
0
100
AcDbLine
10
36.787368825120012
20
-15.365114346900711
30
0
11
36.787368825120012
21
-14.942694959400715
31
0
0
LINE
5
563
100
AcDbEntity
8
0
100
AcDbLine
10
36.787368825120012
20
-14.942694959400715
30
0
11
36.402876337619986
21
-14.951501009400712
31
0
0
LINE
5
564
100
AcDbEntity
8
0
100
AcDbLine
10
36.402876337619986
20
-14.951501009400712
30
0
11
36.018380137619999
21
-14.960318196900705
31
0
0
LINE
5
565
100
AcDbEntity
8
0
100
AcDbLine
10
36.018380137619999
20
-14.960318196900705
30
0
11
36.001777837620004
21
-15.532923059400709
31
0
0
LINE
5
566
100
AcDbEntity
8
0
100
AcDbLine
10
36.001777837620004
20
-15.532923059400709
30
0
11
35.985175537620016
21
-16.105527921900705
31
0
0
LINE
5
567
100
AcDbEntity
8
0
100
AcDbLine
10
35.985175537620016
20
-16.105527921900705
30
0
11
35.933809387619995
21
-16.156890359400705
31
0
0
LINE
5
568
100
AcDbEntity
8
0
100
AcDbLine
10
35.933809387619995
20
-16.156890359400705
30
0
11
35.88244695012002
21
-16.208256509400705
31
0
0
LINE
5
569
100
AcDbEntity
8
0
100
AcDbLine
10
35.88244695012002
20
-16.208256509400705
30
0
11
35.801804025119999
21
-16.188015959400715
31
0
0
LINE
5
570
100
AcDbEntity
8
0
100
AcDbLine
10
35.801804025119999
20
-16.188015959400715
30
0
11
35.721153675120007
21
-16.167775409400711
31
0
0
LINE
5
571
100
AcDbEntity
8
0
100
AcDbLine
10
35.721153675120007
20
-16.167775409400711
30
0
11
35.697133800120014
21
-16.08194240940071
31
0
0
LINE
5
572
100
AcDbEntity
8
0
100
AcDbLine
10
35.697133800120014
20
-16.08194240940071
30
0
11
35.694687262620008
21
-16.064935446900705
31
0
0
LINE
5
573
100
AcDbEntity
8
0
100
AcDbLine
10
35.694687262620008
20
-16.064935446900705
30
0
11
35.692311262620024
21
-16.032206046900708
31
0
0
LINE
5
574
100
AcDbEntity
8
0
100
AcDbLine
10
35.692311262620024
20
-16.032206046900708
30
0
11
35.690013225120019
21
-15.984611796900715
31
0
0
LINE
5
575
100
AcDbEntity
8
0
100
AcDbLine
10
35.690013225120019
20
-15.984611796900715
30
0
11
35.687808000120008
21
-15.923010284400716
31
0
0
LINE
5
576
100
AcDbEntity
8
0
100
AcDbLine
10
35.687808000120008
20
-15.923010284400716
30
0
11
35.685710437620017
21
-15.848259096900703
31
0
0
LINE
5
577
100
AcDbEntity
8
0
100
AcDbLine
10
35.685710437620017
20
-15.848259096900703
30
0
11
35.683731675120008
21
-15.761226959400702
31
0
0
LINE
5
578
100
AcDbEntity
8
0
100
AcDbLine
10
35.683731675120008
20
-15.761226959400702
30
0
11
35.681879137620022
21
-15.662764034400713
31
0
0
LINE
5
579
100
AcDbEntity
8
0
100
AcDbLine
10
35.681879137620022
20
-15.662764034400713
30
0
11
35.680171387620007
21
-15.553735334400711
31
0
0
LINE
5
580
100
AcDbEntity
8
0
100
AcDbLine
10
35.680171387620007
20
-15.553735334400711
30
0
11
35.677234800119997
21
-15.307422096900712
31
0
0
LINE
5
581
100
AcDbEntity
8
0
100
AcDbLine
10
35.677234800119997
20
-15.307422096900712
30
0
11
35.675011012620018
21
-15.029166509400707
31
0
0
LINE
5
582
100
AcDbEntity
8
0
100
AcDbLine
10
35.675011012620018
20
-15.029166509400707
30
0
11
35.673607687620041
21
-14.725844121900709
31
0
0
LINE
5
583
100
AcDbEntity
8
0
100
AcDbLine
10
35.673607687620041
20
-14.725844121900709
30
0
11
35.673117637620031
21
-14.404341621900709
31
0
0
LINE
5
584
100
AcDbEntity
8
0
100
AcDbLine
10
35.673117637620031
20
-14.404341621900709
30
0
11
35.673113925120006
21
-12.812581259400719
31
0
0
LINE
5
585
100
AcDbEntity
8
0
100
AcDbLine
10
35.673113925120006
20
-12.812581259400719
30
0
11
35.725389637619998
21
-12.76027955940072
31
0
0
LINE
5
586
100
AcDbEntity
8
0
100
AcDbLine
10
35.725389637619998
20
-12.76027955940072
30
0
11
35.77766163762
21
-12.707981571900707
31
0
0
LINE
5
587
100
AcDbEntity
8
0
100
AcDbLine
10
35.77766163762
20
-12.707981571900707
30
0
11
35.855323425119998
21
-12.727475909400713
31
0
0
LINE
5
588
100
AcDbEntity
8
0
100
AcDbLine
10
35.855323425119998
20
-12.727475909400713
30
0
11
35.915800050120026
21
-12.755902521900717
31
0
0
LINE
5
589
100
AcDbEntity
8
0
100
AcDbLine
10
35.915800050120026
20
-12.755902521900717
30
0
11
35.952145425120001
21
-12.796888521900719
31
0
0
LINE
5
590
100
AcDbEntity
8
0
100
AcDbLine
10
35.952145425120001
20
-12.796888521900719
30
0
11
35.956414800120015
21
-12.819998834400721
31
0
0
LINE
5
591
100
AcDbEntity
8
0
100
AcDbLine
10
35.956414800120015
20
-12.819998834400721
30
0
11
35.961215062620028
21
-12.866843159400714
31
0
0
LINE
5
592
100
AcDbEntity
8
0
100
AcDbLine
10
35.961215062620028
20
-12.866843159400714
30
0
11
35.966379150119998
21
-12.934588859400716
31
0
0
LINE
5
593
100
AcDbEntity
8
0
100
AcDbLine
10
35.966379150119998
20
-12.934588859400716
30
0
11
35.97174742512
21
-13.020407009400714
31
0
0
LINE
5
594
100
AcDbEntity
8
0
100
AcDbLine
10
35.97174742512
20
-13.020407009400714
30
0
11
35.977152825120022
21
-13.121453834400709
31
0
0
LINE
5
595
100
AcDbEntity
8
0
100
AcDbLine
10
35.977152825120022
20
-13.121453834400709
30
0
11
35.982435712620024
21
-13.234907834400717
31
0
0
LINE
5
596
100
AcDbEntity
8
0
100
AcDbLine
10
35.982435712620024
20
-13.234907834400717
30
0
11
35.987429025120008
21
-13.357928946900719
31
0
0
LINE
5
597
100
AcDbEntity
8
0
100
AcDbLine
10
35.987429025120008
20
-13.357928946900719
30
0
11
35.991973125119998
21
-13.487684534400721
31
0
0
LINE
5
598
100
AcDbEntity
8
0
100
AcDbLine
10
35.991973125119998
20
-13.487684534400721
30
0
11
36.012644325120007
21
-14.128551134400711
31
0
0
LINE
5
599
100
AcDbEntity
8
0
100
AcDbLine
10
36.012644325120007
20
-14.128551134400711
30
0
11
36.400002862619999
21
-14.128551134400711
31
0
0
LINE
5
600
100
AcDbEntity
8
0
100
AcDbLine
10
36.400002862619999
20
-14.128551134400711
30
0
11
36.787368825120012
21
-14.128551134400711
31
0
0
LINE
5
601
100
AcDbEntity
8
0
100
AcDbLine
10
36.787368825120012
20
-14.128551134400711
30
0
11
36.787108950119993
21
-13.69697672190072
31
0
0
LINE
5
602
100
AcDbEntity
8
0
100
AcDbLine
10
36.787108950119993
20
-13.69697672190072
30
0
11
36.785052225120012
21
-13.514700396900722
31
0
0
LINE
5
603
100
AcDbEntity
8
0
100
AcDbLine
10
36.785052225120012
20
-13.514700396900722
30
0
11
36.779231025120012
21
-13.339674584400719
31
0
0
LINE
5
604
100
AcDbEntity
8
0
100
AcDbLine
10
36.779231025120012
20
-13.339674584400719
30
0
11
36.769853250119994
21
-13.173993134400718
31
0
0
LINE
5
605
100
AcDbEntity
8
0
100
AcDbLine
10
36.769853250119994
20
-13.173993134400718
30
0
11
36.75711937512002
21
-13.01975360940072
31
0
0
LINE
5
606
100
AcDbEntity
8
0
100
AcDbLine
10
36.75711937512002
20
-13.01975360940072
30
0
11
36.741237300119991
21
-12.879057284400711
31
0
0
LINE
5
607
100
AcDbEntity
8
0
100
AcDbLine
10
36.741237300119991
20
-12.879057284400711
30
0
11
36.722403787619989
21
-12.753998009400716
31
0
0
LINE
5
608
100
AcDbEntity
8
0
100
AcDbLine
10
36.722403787619989
20
-12.753998009400716
30
0
11
36.700826737620005
21
-12.646673346900727
31
0
0
LINE
5
609
100
AcDbEntity
8
0
100
AcDbLine
10
36.700826737620005
20
-12.646673346900727
30
0
11
36.676710337619987
21
-12.55918085940073
31
0
0
ARC
5
610
100
AcDbEntity
8
0
100
AcDbCircle
10
35.704607958116966
20
-12.903658155556638
30
0
40
1.031332945174511
210
0
220
-0
230
1
100
AcDbArc
50
19.512452666924304
51
38.433317541423122
0
LINE
5
611
100
AcDbEntity
8
0
100
AcDbLine
10
36.512484187620018
20
-12.262578096900715
30
0
11
36.394775662619992
21
-12.107217396900726
31
0
0
LINE
5
612
100
AcDbEntity
8
0
100
AcDbLine
10
36.394775662619992
20
-12.107217396900726
30
0
11
36.226528875120003
21
-12.019327671900729
31
0
0
LINE
5
613
100
AcDbEntity
8
0
100
AcDbLine
10
36.226528875120003
20
-12.019327671900729
30
0
11
36.058289512620014
21
-11.931437946900726
31
0
0
LINE
5
614
100
AcDbEntity
8
0
100
AcDbLine
10
36.058289512620014
20
-11.931437946900726
30
0
11
35.82546007512002
21
-11.931437946900726
31
0
0
LINE
5
615
100
AcDbEntity
8
0
100
AcDbLine
10
35.592630637619997
20
-11.931437946900726
30
0
11
35.485677225120028
21
-11.976121596900725
31
0
0
LINE
5
616
100
AcDbEntity
8
0
100
AcDbLine
10
35.82546007512002
20
-11.931437946900726
30
0
11
35.592630637619997
21
-11.931437946900726
31
0
0
LINE
5
617
100
AcDbEntity
8
0
100
AcDbLine
10
33.640078387620029
20
-12.032752071900719
30
0
11
33.521998612620017
21
-12.031300484400731
31
0
0
LINE
5
618
100
AcDbEntity
8
0
100
AcDbLine
10
33.521998612620017
20
-12.031300484400731
30
0
11
33.411841312620027
21
-12.030457746900719
31
0
0
LINE
5
619
100
AcDbEntity
8
0
100
AcDbLine
10
33.411841312620027
20
-12.030457746900719
30
0
11
33.31201961262002
21
-12.030205296900727
31
0
0
LINE
5
620
100
AcDbEntity
8
0
100
AcDbLine
10
33.31201961262002
20
-12.030205296900727
30
0
11
33.224939212620001
21
-12.030528284400727
31
0
0
LINE
5
621
100
AcDbEntity
8
0
100
AcDbLine
10
33.224939212620001
20
-12.030528284400727
30
0
11
33.153013237620009
21
-12.03140072190072
31
0
0
LINE
5
622
100
AcDbEntity
8
0
100
AcDbLine
10
33.153013237620009
20
-12.03140072190072
30
0
11
33.098651100120023
21
-12.032815184400732
31
0
0
LINE
5
623
100
AcDbEntity
8
0
100
AcDbLine
10
33.098651100120023
20
-12.032815184400732
30
0
11
33.064265925120026
21
-12.03474197190072
31
0
0
LINE
5
624
100
AcDbEntity
8
0
100
AcDbLine
10
33.064265925120026
20
-12.03474197190072
30
0
11
33.052270837620036
21
-12.037173659400723
31
0
0
LINE
5
625
100
AcDbEntity
8
0
100
AcDbLine
10
33.052270837620036
20
-12.037173659400723
30
0
11
33.051194212620004
21
-12.05272532190072
31
0
0
LINE
5
626
100
AcDbEntity
8
0
100
AcDbLine
10
33.051194212620004
20
-12.05272532190072
30
0
11
33.048057150120009
21
-12.09373730940073
31
0
0
LINE
5
627
100
AcDbEntity
8
0
100
AcDbLine
10
33.048057150120009
20
-12.09373730940073
30
0
11
33.042989587619999
21
-12.158524146900717
31
0
0
LINE
5
628
100
AcDbEntity
8
0
100
AcDbLine
10
33.042989587619999
20
-12.158524146900717
30
0
11
33.036136312620037
21
-12.245404071900722
31
0
0
LINE
5
629
100
AcDbEntity
8
0
100
AcDbLine
10
33.036136312620037
20
-12.245404071900722
30
0
11
33.027623550120005
21
-12.352695321900718
31
0
0
LINE
5
630
100
AcDbEntity
8
0
100
AcDbLine
10
33.027623550120005
20
-12.352695321900718
30
0
11
33.017592375120017
21
-12.47871984690072
31
0
0
LINE
5
631
100
AcDbEntity
8
0
100
AcDbLine
10
33.017592375120017
20
-12.47871984690072
30
0
11
33.006172725120038
21
-12.621792171900726
31
0
0
LINE
5
632
100
AcDbEntity
8
0
100
AcDbLine
10
33.006172725120038
20
-12.621792171900726
30
0
11
32.99350938762003
21
-12.780230534400712
31
0
0
LINE
5
633
100
AcDbEntity
8
0
100
AcDbLine
10
32.99350938762003
20
-12.780230534400712
30
0
11
32.979728587620016
21
-12.952353171900729
31
0
0
LINE
5
634
100
AcDbEntity
8
0
100
AcDbLine
10
32.979728587620016
20
-12.952353171900729
30
0
11
32.964971400120014
21
-13.136478321900704
31
0
0
LINE
5
635
100
AcDbEntity
8
0
100
AcDbLine
10
32.964971400120014
20
-13.136478321900704
30
0
11
32.949367762620028
21
-13.33092793440073
31
0
0
LINE
5
636
100
AcDbEntity
8
0
100
AcDbLine
10
32.949367762620028
20
-13.33092793440073
30
0
11
32.933058750120026
21
-13.534012821900721
31
0
0
LINE
5
637
100
AcDbEntity
8
0
100
AcDbLine
10
32.933058750120026
20
-13.534012821900721
30
0
11
32.898862912620046
21
-13.959376221900715
31
0
0
LINE
5
638
100
AcDbEntity
8
0
100
AcDbLine
10
32.898862912620046
20
-13.959376221900715
30
0
11
32.863464225120019
21
-14.399118134400709
31
0
0
LINE
5
639
100
AcDbEntity
8
0
100
AcDbLine
10
32.863464225120019
20
-14.399118134400709
30
0
11
32.827943025120014
21
-14.839780746900718
31
0
0
LINE
5
640
100
AcDbEntity
8
0
100
AcDbLine
10
32.827943025120014
20
-14.839780746900718
30
0
11
32.793387075120023
21
-15.267906246900711
31
0
0
LINE
5
641
100
AcDbEntity
8
0
100
AcDbLine
10
32.793387075120023
20
-15.267906246900711
30
0
11
32.776807050120027
21
-15.473066421900711
31
0
0
LINE
5
642
100
AcDbEntity
8
0
100
AcDbLine
10
32.776807050120027
20
-15.473066421900711
30
0
11
32.760876712620004
21
-15.670047959400701
31
0
0
LINE
5
643
100
AcDbEntity
8
0
100
AcDbLine
10
32.760876712620004
20
-15.670047959400701
30
0
11
32.745729712620019
21
-15.857169096900709
31
0
0
LINE
5
644
100
AcDbEntity
8
0
100
AcDbLine
10
32.745729712620019
20
-15.857169096900709
30
0
11
32.731499700120011
21
-16.032744359400716
31
0
0
LINE
5
645
100
AcDbEntity
8
0
100
AcDbLine
10
32.731499700120011
20
-16.032744359400716
30
0
11
32.718324037620022
21
-16.195099409400711
31
0
0
LINE
5
646
100
AcDbEntity
8
0
100
AcDbLine
10
32.718324037620022
20
-16.195099409400711
30
0
11
32.706340087620021
21
-16.34254505940071
31
0
0
LINE
5
647
100
AcDbEntity
8
0
100
AcDbLine
10
32.706340087620021
20
-16.34254505940071
30
0
11
32.695677787620028
21
-16.473403259400698
31
0
0
LINE
5
648
100
AcDbEntity
8
0
100
AcDbLine
10
32.695677787620028
20
-16.473403259400698
30
0
11
32.686478212620031
21
-16.585995959400709
31
0
0
LINE
5
649
100
AcDbEntity
8
0
100
AcDbLine
10
32.686478212620031
20
-16.585995959400709
30
0
11
32.678871300120029
21
-16.678633971900709
31
0
0
LINE
5
650
100
AcDbEntity
8
0
100
AcDbLine
10
32.678871300120029
20
-16.678633971900709
30
0
11
32.672998125120017
21
-16.749635534400703
31
0
0
LINE
5
651
100
AcDbEntity
8
0
100
AcDbLine
10
32.672998125120017
20
-16.749635534400703
30
0
11
32.668992337620033
21
-16.797326309400717
31
0
0
LINE
5
652
100
AcDbEntity
8
0
100
AcDbLine
10
32.668992337620033
20
-16.797326309400717
30
0
11
32.666987587620028
21
-16.820020821900698
31
0
0
LINE
5
653
100
AcDbEntity
8
0
100
AcDbLine
10
32.666987587620028
20
-16.820020821900698
30
0
11
32.65684132512002
21
-16.922029184400703
31
0
0
LINE
5
654
100
AcDbEntity
8
0
100
AcDbLine
10
32.65684132512002
20
-16.922029184400703
30
0
11
33.069533962620021
21
-16.922029184400703
31
0
0
LINE
5
655
100
AcDbEntity
8
0
100
AcDbLine
10
33.069533962620021
20
-16.922029184400703
30
0
11
33.482226600120043
21
-16.922029184400703
31
0
0
LINE
5
656
100
AcDbEntity
8
0
100
AcDbLine
10
33.482226600120043
20
-16.922029184400703
30
0
11
33.502489425120004
21
-16.616004096900706
31
0
0
ARC
5
657
100
AcDbEntity
8
0
100
AcDbCircle
10
26.517303969737441
20
-16.074427305583932
30
0
40
7.0061488185008658
210
-0
220
0
230
1
100
AcDbArc
50
355.56660141518944
51
359.29293719022394
0
LINE
5
658
100
AcDbEntity
8
0
100
AcDbLine
10
33.522919312620019
20
-16.160885009400708
30
0
11
33.523082662620027
21
-16.01179472190071
31
0
0
LINE
5
659
100
AcDbEntity
8
0
100
AcDbLine
10
33.523082662620027
20
-16.01179472190071
30
0
11
33.695713912620022
21
-16.01179472190071
31
0
0
LINE
5
660
100
AcDbEntity
8
0
100
AcDbLine
10
33.695713912620022
20
-16.01179472190071
30
0
11
33.868341450120028
21
-16.01179472190071
31
0
0
LINE
5
661
100
AcDbEntity
8
0
100
AcDbLine
10
33.868341450120028
20
-16.01179472190071
30
0
11
33.868341450120028
21
-16.163910696900711
31
0
0
ARC
5
662
100
AcDbEntity
8
0
100
AcDbCircle
10
40.07684166292097
20
-16.095966326695336
30
0
40
6.2088719852958736
210
0
220
0
230
1
100
AcDbArc
50
180.62700654244966
51
184.68720007644666
0
LINE
5
663
100
AcDbEntity
8
0
100
AcDbLine
10
33.888734212620008
20
-16.603329621900709
30
0
11
33.909126975120039
21
-16.89063999690071
31
0
0
LINE
5
664
100
AcDbEntity
8
0
100
AcDbLine
10
33.909126975120039
20
-16.89063999690071
30
0
11
34.312464112620006
21
-16.89063999690071
31
0
0
LINE
5
665
100
AcDbEntity
8
0
100
AcDbLine
10
34.312464112620006
20
-16.89063999690071
30
0
11
34.715801250120009
21
-16.89063999690071
31
0
0
LINE
5
666
100
AcDbEntity
8
0
100
AcDbLine
10
34.715801250120009
20
-16.89063999690071
30
0
11
34.713919012620011
21
-16.820020821900698
31
0
0
LINE
5
667
100
AcDbEntity
8
0
100
AcDbLine
10
34.713919012620011
20
-16.820020821900698
30
0
11
34.712474850120032
21
-16.800611871900706
31
0
0
LINE
5
668
100
AcDbEntity
8
0
100
AcDbLine
10
34.712474850120032
20
-16.800611871900706
30
0
11
34.708602712620021
21
-16.757784471900706
31
0
0
LINE
5
669
100
AcDbEntity
8
0
100
AcDbLine
10
34.708602712620021
20
-16.757784471900706
30
0
11
34.702432537620027
21
-16.692782309400716
31
0
0
LINE
5
670
100
AcDbEntity
8
0
100
AcDbLine
10
34.702432537620027
20
-16.692782309400716
30
0
11
34.694090550120023
21
-16.606849071900708
31
0
0
LINE
5
671
100
AcDbEntity
8
0
100
AcDbLine
10
34.694090550120023
20
-16.606849071900708
30
0
11
34.683695550120028
21
-16.501224734400708
31
0
0
LINE
5
672
100
AcDbEntity
8
0
100
AcDbLine
10
34.683695550120028
20
-16.501224734400708
30
0
11
34.671381187620021
21
-16.377152984400702
31
0
0
LINE
5
673
100
AcDbEntity
8
0
100
AcDbLine
10
34.671381187620021
20
-16.377152984400702
30
0
11
34.65726997512003
21
-16.235877509400712
31
0
0
LINE
5
674
100
AcDbEntity
8
0
100
AcDbLine
10
34.65726997512003
20
-16.235877509400712
30
0
11
34.641480712620016
21
-16.078638284400707
31
0
0
LINE
5
675
100
AcDbEntity
8
0
100
AcDbLine
10
34.641480712620016
20
-16.078638284400707
30
0
11
34.624147050120023
21
-15.906686421900709
31
0
0
LINE
5
676
100
AcDbEntity
8
0
100
AcDbLine
10
34.624147050120023
20
-15.906686421900709
30
0
11
34.605387787620039
21
-15.721258184400714
31
0
0
LINE
5
677
100
AcDbEntity
8
0
100
AcDbLine
10
34.605387787620039
20
-15.721258184400714
30
0
11
34.585332862620028
21
-15.523597259400708
31
0
0
LINE
5
678
100
AcDbEntity
8
0
100
AcDbLine
10
34.585332862620028
20
-15.523597259400708
30
0
11
34.564104787620025
21
-15.31495104690072
31
0
0
LINE
5
679
100
AcDbEntity
8
0
100
AcDbLine
10
34.564104787620025
20
-15.31495104690072
30
0
11
34.518626662620036
21
-14.869666371900712
31
0
0
LINE
5
680
100
AcDbEntity
8
0
100
AcDbLine
10
34.518626662620036
20
-14.869666371900712
30
0
11
34.469963212620009
21
-14.395342521900712
31
0
0
LINE
5
681
100
AcDbEntity
8
0
100
AcDbLine
10
34.227882225120027
20
-12.041287109400734
30
0
11
33.640078387620029
21
-12.032752071900719
31
0
0
LINE
5
682
100
AcDbEntity
8
0
100
AcDbLine
10
34.469963212620009
20
-14.395342521900712
30
0
11
34.227882225120027
21
-12.041287109400734
31
0
0
LINE
5
683
100
AcDbEntity
8
0
100
AcDbLine
10
37.662419925119998
20
-12.012979296900729
30
0
11
37.534323825119998
21
-12.017564234400728
31
0
0
LINE
5
684
100
AcDbEntity
8
0
100
AcDbLine
10
37.534323825119998
20
-12.017564234400728
30
0
11
37.418133712619984
21
-12.02192270940073
31
0
0
LINE
5
685
100
AcDbEntity
8
0
100
AcDbLine
10
37.418133712619984
20
-12.02192270940073
30
0
11
37.316663662620002
21
-12.025932209400727
31
0
0
LINE
5
686
100
AcDbEntity
8
0
100
AcDbLine
10
37.316663662620002
20
-12.025932209400727
30
0
11
37.232720325120006
21
-12.029481359400734
31
0
0
LINE
5
687
100
AcDbEntity
8
0
100
AcDbLine
10
37.232720325120006
20
-12.029481359400734
30
0
11
37.169117775119993
21
-12.032458784400728
31
0
0
LINE
5
688
100
AcDbEntity
8
0
100
AcDbLine
10
37.169117775119993
20
-12.032458784400728
30
0
11
37.128666375119998
21
-12.034745684400718
31
0
0
LINE
5
689
100
AcDbEntity
8
0
100
AcDbLine
10
37.128666375119998
20
-12.034745684400718
30
0
11
37.11417648762
21
-12.036230684400735
31
0
0
LINE
5
690
100
AcDbEntity
8
0
100
AcDbLine
10
37.11417648762
20
-12.036230684400735
30
0
11
37.113972300119997
21
-12.049324671900731
31
0
0
LINE
5
691
100
AcDbEntity
8
0
100
AcDbLine
10
37.113972300119997
20
-12.049324671900731
30
0
11
37.113920325120006
21
-12.08673553440072
31
0
0
LINE
5
692
100
AcDbEntity
8
0
100
AcDbLine
10
37.113920325120006
20
-12.08673553440072
30
0
11
37.114016850120009
21
-12.147212159400731
31
0
0
LINE
5
693
100
AcDbEntity
8
0
100
AcDbLine
10
37.114016850120009
20
-12.147212159400731
30
0
11
37.114254450120001
21
-12.229514571900726
31
0
0
LINE
5
694
100
AcDbEntity
8
0
100
AcDbLine
10
37.114254450120001
20
-12.229514571900726
30
0
11
37.114629412619998
21
-12.332399084400727
31
0
0
LINE
5
695
100
AcDbEntity
8
0
100
AcDbLine
10
37.114629412619998
20
-12.332399084400727
30
0
11
37.115130600119997
21
-12.454610871900726
31
0
0
LINE
5
696
100
AcDbEntity
8
0
100
AcDbLine
10
37.115130600119997
20
-12.454610871900726
30
0
11
37.115758012620006
21
-12.594909959400717
31
0
0
LINE
5
697
100
AcDbEntity
8
0
100
AcDbLine
10
37.115758012620006
20
-12.594909959400717
30
0
11
37.116504225120003
21
-12.752052659400722
31
0
0
LINE
5
698
100
AcDbEntity
8
0
100
AcDbLine
10
37.116504225120003
20
-12.752052659400722
30
0
11
37.117361812620004
21
-12.924787859400716
31
0
0
LINE
5
699
100
AcDbEntity
8
0
100
AcDbLine
10
37.117361812620004
20
-12.924787859400716
30
0
11
37.118323350120008
21
-13.111871871900714
31
0
0
LINE
5
700
100
AcDbEntity
8
0
100
AcDbLine
10
37.118323350120008
20
-13.111871871900714
30
0
11
37.119385125120019
21
-13.312061009400708
31
0
0
LINE
5
701
100
AcDbEntity
8
0
100
AcDbLine
10
37.119385125120019
20
-13.312061009400708
30
0
11
37.12053971261998
21
-13.524111584400716
31
0
0
LINE
5
702
100
AcDbEntity
8
0
100
AcDbLine
10
37.12053971261998
20
-13.524111584400716
30
0
11
37.123108762619992
21
-13.978796309400714
31
0
0
LINE
5
703
100
AcDbEntity
8
0
100
AcDbLine
10
37.123108762619992
20
-13.978796309400714
30
0
11
37.125974812620008
21
-14.46596540940071
31
0
0
LINE
5
704
100
AcDbEntity
8
0
100
AcDbLine
10
37.125974812620008
20
-14.46596540940071
30
0
11
37.140531525119997
21
-16.89063999690071
31
0
0
LINE
5
705
100
AcDbEntity
8
0
100
AcDbLine
10
37.140531525119997
20
-16.89063999690071
30
0
11
37.842799162620004
21
-16.89063999690071
31
0
0
LINE
5
706
100
AcDbEntity
8
0
100
AcDbLine
10
37.842799162620004
20
-16.89063999690071
30
0
11
38.545063087619987
21
-16.89063999690071
31
0
0
LINE
5
707
100
AcDbEntity
8
0
100
AcDbLine
10
38.545063087619987
20
-16.89063999690071
30
0
11
38.545063087619987
21
-16.404131721900715
31
0
0
LINE
5
708
100
AcDbEntity
8
0
100
AcDbLine
10
38.545063087619987
20
-16.404131721900715
30
0
11
38.545063087619987
21
-15.917630871900712
31
0
0
LINE
5
709
100
AcDbEntity
8
0
100
AcDbLine
10
38.545063087619987
20
-15.917630871900712
30
0
11
38.231186062620004
21
-15.917630871900712
31
0
0
LINE
5
710
100
AcDbEntity
8
0
100
AcDbLine
10
38.231186062620004
20
-15.917630871900712
30
0
11
37.917316462619993
21
-15.917630871900712
31
0
0
LINE
5
711
100
AcDbEntity
8
0
100
AcDbLine
10
37.917316462619993
20
-15.917630871900712
30
0
11
37.917316462619993
21
-15.368355359400709
31
0
0
LINE
5
712
100
AcDbEntity
8
0
100
AcDbLine
10
37.917316462619993
20
-15.368355359400709
30
0
11
37.917316462619993
21
-14.81907613440071
31
0
0
LINE
5
713
100
AcDbEntity
8
0
100
AcDbLine
10
37.917316462619993
20
-14.81907613440071
30
0
11
38.184107850119993
21
-14.81907613440071
31
0
0
LINE
5
714
100
AcDbEntity
8
0
100
AcDbLine
10
38.184107850119993
20
-14.81907613440071
30
0
11
38.450902950119996
21
-14.81907613440071
31
0
0
LINE
5
715
100
AcDbEntity
8
0
100
AcDbLine
10
38.450902950119996
20
-14.81907613440071
30
0
11
38.450902950119996
21
-14.363957046900717
31
0
0
LINE
5
716
100
AcDbEntity
8
0
100
AcDbLine
10
38.450902950119996
20
-14.363957046900717
30
0
11
38.450902950119996
21
-13.90884167190071
31
0
0
LINE
5
717
100
AcDbEntity
8
0
100
AcDbLine
10
38.450902950119996
20
-13.90884167190071
30
0
11
38.184107850119993
21
-13.90884167190071
31
0
0
LINE
5
718
100
AcDbEntity
8
0
100
AcDbLine
10
38.184107850119993
20
-13.90884167190071
30
0
11
37.917316462619993
21
-13.90884167190071
31
0
0
LINE
5
719
100
AcDbEntity
8
0
100
AcDbLine
10
37.917316462619993
20
-13.90884167190071
30
0
11
37.917316462619993
21
-13.438029846900715
31
0
0
LINE
5
720
100
AcDbEntity
8
0
100
AcDbLine
10
37.917316462619993
20
-13.438029846900715
30
0
11
37.917316462619993
21
-12.967214309400717
31
0
0
LINE
5
721
100
AcDbEntity
8
0
100
AcDbLine
10
37.917316462619993
20
-12.967214309400717
30
0
11
38.199804300119993
21
-12.967214309400717
31
0
0
LINE
5
722
100
AcDbEntity
8
0
100
AcDbLine
10
38.199804300119993
20
-12.967214309400717
30
0
11
38.482284712619979
21
-12.967214309400717
31
0
0
LINE
5
723
100
AcDbEntity
8
0
100
AcDbLine
10
38.482284712619979
20
-12.967214309400717
30
0
11
38.482284712619979
21
-12.476303009400718
31
0
0
LINE
5
724
100
AcDbEntity
8
0
100
AcDbLine
10
38.482284712619979
20
-12.476303009400718
30
0
11
38.482284712619979
21
-11.985387996900725
31
0
0
LINE
5
725
100
AcDbEntity
8
0
100
AcDbLine
10
37.799611650119999
20
-12.008279271900722
30
0
11
37.662419925119998
21
-12.012979296900729
31
0
0
LINE
5
726
100
AcDbEntity
8
0
100
AcDbLine
10
38.482284712619979
20
-11.985387996900725
30
0
11
37.799611650119999
21
-12.008279271900722
31
0
0
LINE
5
727
100
AcDbEntity
8
0
100
AcDbLine
10
40.201045987619977
20
-11.631842909400724
30
0
11
40.367529337619992
21
-11.628817221900718
31
0
0
LINE
5
728
100
AcDbEntity
8
0
100
AcDbLine
10
40.367529337619992
20
-11.628817221900718
30
0
11
40.519203525119977
21
-11.626875584400732
31
0
0
LINE
5
729
100
AcDbEntity
8
0
100
AcDbLine
10
40.519203525119977
20
-11.626875584400732
30
0
11
40.652359762619994
21
-11.626025421900735
31
0
0
LINE
5
730
100
AcDbEntity
8
0
100
AcDbLine
10
40.652359762619994
20
-11.626025421900735
30
0
11
40.763304112619998
21
-11.626281584400719
31
0
0
LINE
5
731
100
AcDbEntity
8
0
100
AcDbLine
10
40.763304112619998
20
-11.626281584400719
30
0
11
40.848331500119997
21
-11.627647784400734
31
0
0
LINE
5
732
100
AcDbEntity
8
0
100
AcDbLine
10
40.848331500119997
20
-11.627647784400734
30
0
11
40.903744275119976
21
-11.630135159400734
31
0
0
LINE
5
733
100
AcDbEntity
8
0
100
AcDbLine
10
40.903744275119976
20
-11.630135159400734
30
0
11
40.925837362620001
21
-11.633754846900732
31
0
0
LINE
5
734
100
AcDbEntity
8
0
100
AcDbLine
10
40.925837362620001
20
-11.633754846900732
30
0
11
40.930132725119996
21
-11.651875559400725
31
0
0
LINE
5
735
100
AcDbEntity
8
0
100
AcDbLine
10
40.930132725119996
20
-11.651875559400725
30
0
11
40.934535750119998
21
-11.695920659400729
31
0
0
LINE
5
736
100
AcDbEntity
8
0
100
AcDbLine
10
40.934535750119998
20
-11.695920659400729
30
0
11
40.938920212619998
21
-11.76299439690073
31
0
0
LINE
5
737
100
AcDbEntity
8
0
100
AcDbLine
10
40.938920212619998
20
-11.76299439690073
30
0
11
40.94316731262002
21
-11.850182459400722
31
0
0
LINE
5
738
100
AcDbEntity
8
0
100
AcDbLine
10
40.94316731262002
20
-11.850182459400722
30
0
11
40.947147112619994
21
-11.954585384400719
31
0
0
LINE
5
739
100
AcDbEntity
8
0
100
AcDbLine
10
40.947147112619994
20
-11.954585384400719
30
0
11
40.950733387620019
21
-12.073296284400723
31
0
0
LINE
5
740
100
AcDbEntity
8
0
100
AcDbLine
10
40.950733387620019
20
-12.073296284400723
30
0
11
40.953807337619992
21
-12.203411984400718
31
0
0
LINE
5
741
100
AcDbEntity
8
0
100
AcDbLine
10
40.953807337619992
20
-12.203411984400718
30
0
11
40.956239025119984
21
-12.342021884400719
31
0
0
LINE
5
742
100
AcDbEntity
8
0
100
AcDbLine
10
40.956239025119984
20
-12.342021884400719
30
0
11
40.966277625120014
21
-13.029992684400719
31
0
0
LINE
5
743
100
AcDbEntity
8
0
100
AcDbLine
10
40.966277625120014
20
-13.029992684400719
30
0
11
41.215185900119977
21
-13.029992684400719
31
0
0
LINE
5
744
100
AcDbEntity
8
0
100
AcDbLine
10
41.215185900119977
20
-13.029992684400719
30
0
11
41.46409046262
21
-13.029992684400719
31
0
0
LINE
5
745
100
AcDbEntity
8
0
100
AcDbLine
10
41.46409046262
20
-13.029992684400719
30
0
11
41.46409046262
21
-12.747504846900719
31
0
0
LINE
5
746
100
AcDbEntity
8
0
100
AcDbLine
10
41.46409046262
20
-12.747504846900719
30
0
11
41.465426962619993
21
-12.637822746900733
31
0
0
LINE
5
747
100
AcDbEntity
8
0
100
AcDbLine
10
41.465426962619993
20
-12.637822746900733
30
0
11
41.469065212619995
21
-12.54799880940074
31
0
0
LINE
5
748
100
AcDbEntity
8
0
100
AcDbLine
10
41.469065212619995
20
-12.54799880940074
30
0
11
41.471574862619988
21
-12.513435434400723
31
0
0
LINE
5
749
100
AcDbEntity
8
0
100
AcDbLine
10
41.471574862619988
20
-12.513435434400723
30
0
11
41.47444833761999
21
-12.487310571900727
31
0
0
LINE
5
750
100
AcDbEntity
8
0
100
AcDbLine
10
41.47444833761999
20
-12.487310571900727
30
0
11
41.47762252511999
21
-12.470786234400716
31
0
0
LINE
5
751
100
AcDbEntity
8
0
100
AcDbLine
10
41.47762252511999
20
-12.470786234400716
30
0
11
41.481023175119986
21
-12.46502072190073
31
0
0
LINE
5
752
100
AcDbEntity
8
0
100
AcDbLine
10
41.481023175119986
20
-12.46502072190073
30
0
11
41.496823575119983
21
-12.475148421900727
31
0
0
LINE
5
753
100
AcDbEntity
8
0
100
AcDbLine
10
41.496823575119983
20
-12.475148421900727
30
0
11
41.536703250120006
21
-12.503853471900721
31
0
0
LINE
5
754
100
AcDbEntity
8
0
100
AcDbLine
10
41.536703250120006
20
-12.503853471900721
30
0
11
41.597339512619989
21
-12.54860023440072
31
0
0
LINE
5
755
100
AcDbEntity
8
0
100
AcDbLine
10
41.597339512619989
20
-12.54860023440072
30
0
11
41.675409675119973
21
-12.606864209400717
31
0
0
LINE
5
756
100
AcDbEntity
8
0
100
AcDbLine
10
41.675409675119973
20
-12.606864209400717
30
0
11
41.767591050119968
21
-12.676117184400734
31
0
0
LINE
5
757
100
AcDbEntity
8
0
100
AcDbLine
10
41.767591050119968
20
-12.676117184400734
30
0
11
41.870557237619963
21
-12.753830946900715
31
0
0
LINE
5
758
100
AcDbEntity
8
0
100
AcDbLine
10
41.870557237619963
20
-12.753830946900715
30
0
11
41.980992975119989
21
-12.83748099690072
31
0
0
LINE
5
759
100
AcDbEntity
8
0
100
AcDbLine
10
41.980992975119989
20
-12.83748099690072
30
0
11
42.095568150119973
21
-12.924527984400722
31
0
0
LINE
5
760
100
AcDbEntity
8
0
100
AcDbLine
10
42.095568150119973
20
-12.924527984400722
30
0
11
42.323853487619978
21
-13.098729621900729
31
0
0
LINE
5
761
100
AcDbEntity
8
0
100
AcDbLine
10
42.323853487619978
20
-13.098729621900729
30
0
11
42.528835462619988
21
-13.25620644690072
31
0
0
LINE
5
762
100
AcDbEntity
8
0
100
AcDbLine
10
42.528835462619988
20
-13.25620644690072
30
0
11
42.614282362619988
21
-13.322352059400728
31
0
0
LINE
5
763
100
AcDbEntity
8
0
100
AcDbLine
10
42.614282362619988
20
-13.322352059400728
30
0
11
42.683932575119989
21
-13.376732759400715
31
0
0
LINE
5
764
100
AcDbEntity
8
0
100
AcDbLine
10
42.683932575119989
20
-13.376732759400715
30
0
11
42.734463412619981
21
-13.416820334400709
31
0
0
LINE
5
765
100
AcDbEntity
8
0
100
AcDbLine
10
42.734463412619981
20
-13.416820334400709
30
0
11
42.762552187619995
21
-13.440086571900714
31
0
0
LINE
5
766
100
AcDbEntity
8
0
100
AcDbLine
10
42.762552187619995
20
-13.440086571900714
30
0
11
42.765466500119999
21
-13.455545421900725
31
0
0
LINE
5
767
100
AcDbEntity
8
0
100
AcDbLine
10
42.765466500119999
20
-13.455545421900725
30
0
11
42.747542550119988
21
-13.476376259400705
31
0
0
LINE
5
768
100
AcDbEntity
8
0
100
AcDbLine
10
42.747542550119988
20
-13.476376259400705
30
0
11
42.710807362619988
21
-13.501580421900725
31
0
0
LINE
5
769
100
AcDbEntity
8
0
100
AcDbLine
10
42.710807362619988
20
-13.501580421900725
30
0
11
42.657287962620003
21
-13.530170384400716
31
0
0
LINE
5
770
100
AcDbEntity
8
0
100
AcDbLine
10
42.657287962620003
20
-13.530170384400716
30
0
11
42.589007662619977
21
-13.56115862190072
31
0
0
LINE
5
771
100
AcDbEntity
8
0
100
AcDbLine
10
42.589007662619977
20
-13.56115862190072
30
0
11
42.507989775119981
21
-13.593550184400714
31
0
0
LINE
5
772
100
AcDbEntity
8
0
100
AcDbLine
10
42.507989775119981
20
-13.593550184400714
30
0
11
42.416257612619972
21
-13.626357546900715
31
0
0
LINE
5
773
100
AcDbEntity
8
0
100
AcDbLine
10
42.416257612619972
20
-13.626357546900715
30
0
11
42.315834487619988
21
-13.658593184400729
31
0
0
LINE
5
774
100
AcDbEntity
8
0
100
AcDbLine
10
42.315834487619988
20
-13.658593184400729
30
0
11
42.146678137619979
21
-13.701483696900718
31
0
0
LINE
5
775
100
AcDbEntity
8
0
100
AcDbLine
10
42.146678137619979
20
-13.701483696900718
30
0
11
41.965125750119995
21
-13.732019009400709
31
0
0
LINE
5
776
100
AcDbEntity
8
0
100
AcDbLine
10
41.965125750119995
20
-13.732019009400709
30
0
11
41.775402150120001
21
-13.750206546900721
31
0
0
LINE
5
777
100
AcDbEntity
8
0
100
AcDbLine
10
41.775402150120001
20
-13.750206546900721
30
0
11
41.581728450119982
21
-13.756057446900714
31
0
0
LINE
5
778
100
AcDbEntity
8
0
100
AcDbLine
10
41.581728450119982
20
-13.756057446900714
30
0
11
41.388329475119995
21
-13.749575421900724
31
0
0
LINE
5
779
100
AcDbEntity
8
0
100
AcDbLine
10
41.388329475119995
20
-13.749575421900724
30
0
11
41.199430050119986
21
-13.730767896900716
31
0
0
LINE
5
780
100
AcDbEntity
8
0
100
AcDbLine
10
41.199430050119986
20
-13.730767896900716
30
0
11
41.019258712620001
21
-13.699638584400713
31
0
0
LINE
5
781
100
AcDbEntity
8
0
100
AcDbLine
10
41.019258712620001
20
-13.699638584400713
30
0
11
40.85203657512001
21
-13.656198621900728
31
0
0
ARC
5
782
100
AcDbEntity
8
0
100
AcDbCircle
10
41.581694370474843
20
-11.283344485124402
30
0
40
2.4825062442496746
210
0
220
0
230
1
100
AcDbArc
50
197.92798540633129
51
252.9072234762983
0
LINE
5
783
100
AcDbEntity
8
0
100
AcDbLine
10
39.219728287620008
20
-12.047512971900714
30
0
11
39.189322912619993
21
-11.946748296900722
31
0
0
LINE
5
784
100
AcDbEntity
8
0
100
AcDbLine
10
39.189322912619993
20
-11.946748296900722
30
0
11
39.164423175119992
21
-11.853393771900723
31
0
0
LINE
5
785
100
AcDbEntity
8
0
100
AcDbLine
10
39.164423175119992
20
-11.853393771900723
30
0
11
39.14760183761998
21
-11.777859246900725
31
0
0
LINE
5
786
100
AcDbEntity
8
0
100
AcDbLine
10
39.14760183761998
20
-11.777859246900725
30
0
11
39.141424237620001
21
-11.730539721900719
31
0
0
LINE
5
787
100
AcDbEntity
8
0
100
AcDbLine
10
39.141424237620001
20
-11.730539721900719
30
0
11
39.14142052511999
21
-11.658435546900732
31
0
0
LINE
5
788
100
AcDbEntity
8
0
100
AcDbLine
10
40.023447412620001
20
-11.635948934400728
30
0
11
40.201045987619977
21
-11.631842909400724
31
0
0
LINE
5
789
100
AcDbEntity
8
0
100
AcDbLine
10
39.14142052511999
20
-11.658435546900732
30
0
11
40.023447412620001
21
-11.635948934400728
31
0
0
LINE
5
790
100
AcDbEntity
8
0
100
AcDbLine
10
40.930077037619988
20
-10.655421996900746
30
0
11
40.928851912619997
21
-10.798954671900734
31
0
0
LINE
5
791
100
AcDbEntity
8
0
100
AcDbLine
10
40.928851912619997
20
-10.798954671900734
30
0
11
40.926917700119994
21
-10.929853709400735
31
0
0
LINE
5
792
100
AcDbEntity
8
0
100
AcDbLine
10
40.926917700119994
20
-10.929853709400735
30
0
11
40.924356075120002
21
-11.044911509400723
31
0
0
LINE
5
793
100
AcDbEntity
8
0
100
AcDbLine
10
40.924356075120002
20
-11.044911509400723
30
0
11
40.921256137619991
21
-11.140935321900731
31
0
0
LINE
5
794
100
AcDbEntity
8
0
100
AcDbLine
10
40.921256137619991
20
-11.140935321900731
30
0
11
40.91770327511999
21
-11.21471754690074
31
0
0
LINE
5
795
100
AcDbEntity
8
0
100
AcDbLine
10
40.91770327511999
20
-11.21471754690074
30
0
11
40.913782875120006
21
-11.263058009400728
31
0
0
LINE
5
796
100
AcDbEntity
8
0
100
AcDbLine
10
40.913782875120006
20
-11.263058009400728
30
0
11
40.90958032511999
21
-11.282760246900736
31
0
0
LINE
5
797
100
AcDbEntity
8
0
100
AcDbLine
10
40.90958032511999
20
-11.282760246900736
30
0
11
40.887223650119999
21
-11.286962796900728
31
0
0
LINE
5
798
100
AcDbEntity
8
0
100
AcDbLine
10
40.887223650119999
20
-11.286962796900728
30
0
11
40.831283700120011
21
-11.290886909400733
31
0
0
LINE
5
799
100
AcDbEntity
8
0
100
AcDbLine
10
40.831283700120011
20
-11.290886909400733
30
0
11
40.745484112619998
21
-11.294439771900729
31
0
0
LINE
5
800
100
AcDbEntity
8
0
100
AcDbLine
10
40.745484112619998
20
-11.294439771900729
30
0
11
40.633567087619994
21
-11.297539709400732
31
0
0
LINE
5
801
100
AcDbEntity
8
0
100
AcDbLine
10
40.633567087619994
20
-11.297539709400732
30
0
11
40.499259975119998
21
-11.300101334400733
31
0
0
LINE
5
802
100
AcDbEntity
8
0
100
AcDbLine
10
40.499259975119998
20
-11.300101334400733
30
0
11
40.346297550119992
21
-11.302035546900733
31
0
0
LINE
5
803
100
AcDbEntity
8
0
100
AcDbLine
10
40.346297550119992
20
-11.302035546900733
30
0
11
40.178414587619997
21
-11.303260671900732
31
0
0
LINE
5
804
100
AcDbEntity
8
0
100
AcDbLine
10
40.178414587619997
20
-11.303260671900732
30
0
11
39.99934586261999
21
-11.303687609400733
31
0
0
LINE
5
805
100
AcDbEntity
8
0
100
AcDbLine
10
39.99934586261999
20
-11.303687609400733
30
0
11
39.110035050120004
21
-11.303687609400733
31
0
0
LINE
5
806
100
AcDbEntity
8
0
100
AcDbLine
10
39.110035050120004
20
-11.303687609400733
30
0
11
39.11025408762
21
-11.154597321900727
31
0
0
LINE
5
807
100
AcDbEntity
8
0
100
AcDbLine
10
39.11025408762
20
-11.154597321900727
30
0
11
39.119156662620007
21
-11.017082609400736
31
0
0
LINE
5
808
100
AcDbEntity
8
0
100
AcDbLine
10
39.119156662620007
20
-11.017082609400736
30
0
11
39.144383100120017
21
-10.865122559400728
31
0
0
LINE
5
809
100
AcDbEntity
8
0
100
AcDbLine
10
39.144383100120017
20
-10.865122559400728
30
0
11
39.184303612619999
21
-10.703387496900742
31
0
0
LINE
5
810
100
AcDbEntity
8
0
100
AcDbLine
10
39.184303612619999
20
-10.703387496900742
30
0
11
39.23727356261999
21
-10.536536609400734
31
0
0
LINE
5
811
100
AcDbEntity
8
0
100
AcDbLine
10
39.23727356261999
20
-10.536536609400734
30
0
11
39.301655737619996
21
-10.369243934400728
31
0
0
LINE
5
812
100
AcDbEntity
8
0
100
AcDbLine
10
39.301655737619996
20
-10.369243934400728
30
0
11
39.375809212619984
21
-10.206168659400737
31
0
0
LINE
5
813
100
AcDbEntity
8
0
100
AcDbLine
10
39.375809212619984
20
-10.206168659400737
30
0
11
39.458096775119998
21
-10.051981109400732
31
0
0
LINE
5
814
100
AcDbEntity
8
0
100
AcDbLine
10
39.458096775119998
20
-10.051981109400732
30
0
11
39.546884925119976
21
-9.9113478969007236
31
0
0
LINE
5
815
100
AcDbEntity
8
0
100
AcDbLine
10
39.546884925119976
20
-9.9113478969007236
30
0
11
39.609600187620003
21
-9.8281581969007288
31
0
0
LINE
5
816
100
AcDbEntity
8
0
100
AcDbLine
10
39.609600187620003
20
-9.8281581969007288
30
0
11
39.686033137619994
21
-9.7390767594007226
31
0
0
LINE
5
817
100
AcDbEntity
8
0
100
AcDbLine
10
39.686033137619994
20
-9.7390767594007226
30
0
11
39.773017012620002
21
-9.6470661594007385
31
0
0
LINE
5
818
100
AcDbEntity
8
0
100
AcDbLine
10
39.773017012620002
20
-9.6470661594007385
30
0
11
39.867396187620002
21
-9.5550926844007336
31
0
0
LINE
5
819
100
AcDbEntity
8
0
100
AcDbLine
10
39.867396187620002
20
-9.5550926844007336
30
0
11
40.065691950119991
21
-9.3831036969007222
31
0
0
LINE
5
820
100
AcDbEntity
8
0
100
AcDbLine
10
40.065691950119991
20
-9.3831036969007222
30
0
11
40.255623450119991
21
-9.2468252469007357
31
0
0
ARC
5
821
100
AcDbEntity
8
0
100
AcDbCircle
10
41.615951604408835
20
-11.472007306946812
30
0
40
2.6080505914766716
210
0
220
0
230
1
100
AcDbArc
50
99.382228102412128
51
121.43883855506076
0
LINE
5
822
100
AcDbEntity
8
0
100
AcDbLine
10
41.190787350120019
20
-8.898845196900723
30
0
11
41.479783200120004
21
-8.8485259719007416
31
0
0
LINE
5
823
100
AcDbEntity
8
0
100
AcDbLine
10
41.479783200120004
20
-8.8485259719007416
30
0
11
41.754935137619967
21
-8.8688556219007282
31
0
0
ARC
5
824
100
AcDbEntity
8
0
100
AcDbCircle
10
41.552159550498274
20
-11.548315428576711
30
0
40
2.6871216560335673
210
0
220
-0
230
1
100
AcDbArc
50
73.747247739222118
51
85.672231545594798
0
LINE
5
825
100
AcDbEntity
8
0
100
AcDbLine
10
42.304218075119977
20
-8.9685807969007278
30
0
11
42.528690675119989
21
-9.0472783719007293
31
0
0
LINE
5
826
100
AcDbEntity
8
0
100
AcDbLine
10
42.528690675119989
20
-9.0472783719007293
30
0
11
42.757005712619986
21
-9.1471631844007266
31
0
0
LINE
5
827
100
AcDbEntity
8
0
100
AcDbLine
10
42.757005712619986
20
-9.1471631844007266
30
0
11
42.854592487619982
21
-9.1964057844007421
31
0
0
LINE
5
828
100
AcDbEntity
8
0
100
AcDbLine
10
42.854592487619982
20
-9.1964057844007421
30
0
11
42.931519200119979
21
-9.2405696844007288
31
0
0
LINE
5
829
100
AcDbEntity
8
0
100
AcDbLine
10
42.931519200119979
20
-9.2405696844007288
30
0
11
42.980583600119985
21
-9.2761985469007229
31
0
0
LINE
5
830
100
AcDbEntity
8
0
100
AcDbLine
10
42.980583600119985
20
-9.2761985469007229
30
0
11
42.99457601261998
21
-9.2998360344007303
31
0
0
LINE
5
831
100
AcDbEntity
8
0
100
AcDbLine
10
42.99457601261998
20
-9.2998360344007303
30
0
11
42.72413523761999
21
-9.5285297469007428
31
0
0
LINE
5
832
100
AcDbEntity
8
0
100
AcDbLine
10
42.72413523761999
20
-9.5285297469007428
30
0
11
42.441027412620002
21
-9.7343173344007301
31
0
0
LINE
5
833
100
AcDbEntity
8
0
100
AcDbLine
10
42.441027412620002
20
-9.7343173344007301
30
0
11
42.420293100119977
21
-9.7219324344007276
31
0
0
LINE
5
834
100
AcDbEntity
8
0
100
AcDbLine
10
42.420293100119977
20
-9.7219324344007276
30
0
11
42.380094150120001
21
-9.6882155094007345
31
0
0
LINE
5
835
100
AcDbEntity
8
0
100
AcDbLine
10
42.380094150120001
20
-9.6882155094007345
30
0
11
42.326222062619991
21
-9.6383157969007307
31
0
0
LINE
5
836
100
AcDbEntity
8
0
100
AcDbLine
10
42.326222062619991
20
-9.6383157969007307
30
0
11
42.264468337619974
21
-9.5773788219007301
31
0
0
LINE
5
837
100
AcDbEntity
8
0
100
AcDbLine
10
42.264468337619974
20
-9.5773788219007301
30
0
11
42.202915087619964
21
-9.5164455594007311
31
0
0
LINE
5
838
100
AcDbEntity
8
0
100
AcDbLine
10
42.202915087619964
20
-9.5164455594007311
30
0
11
42.149592450119997
21
-9.4665421344007257
31
0
0
LINE
5
839
100
AcDbEntity
8
0
100
AcDbLine
10
42.149592450119997
20
-9.4665421344007257
30
0
11
42.110210250119991
21
-9.4328252094007237
31
0
0
LINE
5
840
100
AcDbEntity
8
0
100
AcDbLine
10
42.110210250119991
20
-9.4328252094007237
30
0
11
42.09047088762
21
-9.4204440219007282
31
0
0
LINE
5
841
100
AcDbEntity
8
0
100
AcDbLine
10
42.09047088762
20
-9.4204440219007282
30
0
11
42.083888625119968
21
-9.428934509400726
31
0
0
LINE
5
842
100
AcDbEntity
8
0
100
AcDbLine
10
42.083888625119968
20
-9.428934509400726
30
0
11
42.072561787619989
21
-9.4532662344007328
31
0
0
LINE
5
843
100
AcDbEntity
8
0
100
AcDbLine
10
42.072561787619989
20
-9.4532662344007328
30
0
11
42.05711036261998
21
-9.4917351594007329
31
0
0
LINE
5
844
100
AcDbEntity
8
0
100
AcDbLine
10
42.05711036261998
20
-9.4917351594007329
30
0
11
42.038154337619986
21
-9.542637246900739
31
0
0
LINE
5
845
100
AcDbEntity
8
0
100
AcDbLine
10
42.038154337619986
20
-9.542637246900739
30
0
11
41.992201012620001
21
-9.6749024844007323
31
0
0
LINE
5
846
100
AcDbEntity
8
0
100
AcDbLine
10
41.992201012620001
20
-9.6749024844007323
30
0
11
41.939646862619981
21
-9.8364185094007244
31
0
0
LINE
5
847
100
AcDbEntity
8
0
100
AcDbLine
10
41.939646862619981
20
-9.8364185094007244
30
0
11
41.808235500119999
21
-10.252392996900728
31
0
0
LINE
5
848
100
AcDbEntity
8
0
100
AcDbLine
10
41.808235500119999
20
-10.252392996900728
30
0
11
41.639784525119993
21
-10.382731446900726
31
0
0
LINE
5
849
100
AcDbEntity
8
0
100
AcDbLine
10
41.639784525119993
20
-10.382731446900726
30
0
11
41.471340975120007
21
-10.513066184400742
31
0
0
LINE
5
850
100
AcDbEntity
8
0
100
AcDbLine
10
41.471340975120007
20
-10.513066184400742
30
0
11
41.452366387619975
21
-10.398331371900733
31
0
0
LINE
5
851
100
AcDbEntity
8
0
100
AcDbLine
10
41.452366387619975
20
-10.398331371900733
30
0
11
41.444971087619976
21
-10.330871534400721
31
0
0
LINE
5
852
100
AcDbEntity
8
0
100
AcDbLine
10
41.444971087619976
20
-10.330871534400721
30
0
11
41.438864025119997
21
-10.232015084400729
31
0
0
LINE
5
853
100
AcDbEntity
8
0
100
AcDbLine
10
41.438864025119997
20
-10.232015084400729
30
0
11
41.434680037619998
21
-10.115045346900729
31
0
0
LINE
5
854
100
AcDbEntity
8
0
100
AcDbLine
10
41.434680037619998
20
-10.115045346900729
30
0
11
41.433046537620001
21
-9.9932642094007278
31
0
0
LINE
5
855
100
AcDbEntity
8
0
100
AcDbLine
10
41.433046537620001
20
-9.9932642094007278
30
0
11
41.432701275119975
21
-9.7029281469007298
31
0
0
LINE
5
856
100
AcDbEntity
8
0
100
AcDbLine
10
41.432701275119975
20
-9.7029281469007298
30
0
11
41.346385650120006
21
-9.7031991594007287
31
0
0
ARC
5
857
100
AcDbEntity
8
0
100
AcDbCircle
10
41.393096229020998
20
-11.868426584867041
30
0
40
2.1657312118942067
210
0
220
0
230
1
100
AcDbArc
50
91.235853532317833
51
97.903773631316128
0
LINE
5
858
100
AcDbEntity
8
0
100
AcDbLine
10
41.095287000120003
20
-9.7232689344007355
30
0
11
40.93050397511999
21
-9.7430639844007327
31
0
0
LINE
5
859
100
AcDbEntity
8
0
100
AcDbLine
10
40.93050397511999
20
-10.502448434400726
30
0
11
40.930077037619988
21
-10.655421996900746
31
0
0
LINE
5
860
100
AcDbEntity
8
0
100
AcDbLine
10
40.93050397511999
20
-9.7430639844007327
30
0
11
40.93050397511999
21
-10.502448434400726
31
0
0
LINE
5
861
100
AcDbEntity
8
0
100
AcDbLine
10
41.706479587619974
20
-10.757467484400742
30
0
11
41.946073200119976
21
-10.572206309400737
31
0
0
LINE
5
862
100
AcDbEntity
8
0
100
AcDbLine
10
41.946073200119976
20
-10.572206309400737
30
0
11
42.511980712619973
21
-10.467135134400724
31
0
0
LINE
5
863
100
AcDbEntity
8
0
100
AcDbLine
10
42.511980712619973
20
-10.467135134400724
30
0
11
42.625887637619975
21
-10.446029571900723
31
0
0
LINE
5
864
100
AcDbEntity
8
0
100
AcDbLine
10
42.625887637619975
20
-10.446029571900723
30
0
11
42.732581175119975
21
-10.426338471900733
31
0
0
LINE
5
865
100
AcDbEntity
8
0
100
AcDbLine
10
42.732581175119975
20
-10.426338471900733
30
0
11
42.829700175119982
21
-10.408496196900728
31
0
0
LINE
5
866
100
AcDbEntity
8
0
100
AcDbLine
10
42.829700175119982
20
-10.408496196900728
30
0
11
42.914876062619996
21
-10.39292968440073
31
0
0
LINE
5
867
100
AcDbEntity
8
0
100
AcDbLine
10
42.914876062619996
20
-10.39292968440073
30
0
11
42.985747687619991
21
-10.380073296900726
31
0
0
LINE
5
868
100
AcDbEntity
8
0
100
AcDbLine
10
42.985747687619991
20
-10.380073296900726
30
0
11
43.039942762619994
21
-10.370353971900732
31
0
0
LINE
5
869
100
AcDbEntity
8
0
100
AcDbLine
10
43.039942762619994
20
-10.370353971900732
30
0
11
43.075100137619998
21
-10.364209784400726
31
0
0
LINE
5
870
100
AcDbEntity
8
0
100
AcDbLine
10
43.075100137619998
20
-10.364209784400726
30
0
11
43.088851237619998
21
-10.362063959400732
31
0
0
LINE
5
871
100
AcDbEntity
8
0
100
AcDbLine
10
43.088851237619998
20
-10.362063959400732
30
0
11
43.078107262620009
21
-10.348175496900735
31
0
0
LINE
5
872
100
AcDbEntity
8
0
100
AcDbLine
10
43.078107262620009
20
-10.348175496900735
30
0
11
43.040748375120003
21
-10.310359971900724
31
0
0
LINE
5
873
100
AcDbEntity
8
0
100
AcDbLine
10
43.040748375120003
20
-10.310359971900724
30
0
11
42.982651462619977
21
-10.254394034400731
31
0
0
LINE
5
874
100
AcDbEntity
8
0
100
AcDbLine
10
42.982651462619977
20
-10.254394034400731
30
0
11
42.909697125119976
21
-10.186054334400733
31
0
0
LINE
5
875
100
AcDbEntity
8
0
100
AcDbLine
10
42.909697125119976
20
-10.186054334400733
30
0
11
42.83588148762
21
-10.115839821900732
31
0
0
LINE
5
876
100
AcDbEntity
8
0
100
AcDbLine
10
42.83588148762
20
-10.115839821900732
30
0
11
42.775430850119996
21
-10.054776621900734
31
0
0
LINE
5
877
100
AcDbEntity
8
0
100
AcDbLine
10
42.775430850119996
20
-10.054776621900734
30
0
11
42.734585925119973
21
-10.009417296900736
31
0
0
LINE
5
878
100
AcDbEntity
8
0
100
AcDbLine
10
42.734585925119973
20
-10.009417296900736
30
0
11
42.719583712619965
21
-9.986314409400741
31
0
0
LINE
5
879
100
AcDbEntity
8
0
100
AcDbLine
10
42.719583712619965
20
-9.986314409400741
30
0
11
42.725464312619991
21
-9.9769737594007211
31
0
0
LINE
5
880
100
AcDbEntity
8
0
100
AcDbLine
10
42.725464312619991
20
-9.9769737594007211
30
0
11
42.74231906261997
21
-9.9594099219007344
31
0
0
LINE
5
881
100
AcDbEntity
8
0
100
AcDbLine
10
42.74231906261997
20
-9.9594099219007344
30
0
11
42.768963675119984
21
-9.9346512594007219
31
0
0
LINE
5
882
100
AcDbEntity
8
0
100
AcDbLine
10
42.768963675119984
20
-9.9346512594007219
30
0
11
42.804213862619974
21
-9.9037038594007374
31
0
0
LINE
5
883
100
AcDbEntity
8
0
100
AcDbLine
10
42.804213862619974
20
-9.9037038594007374
30
0
11
42.89582351261997
21
-9.8273228844007239
31
0
0
LINE
5
884
100
AcDbEntity
8
0
100
AcDbLine
10
42.89582351261997
20
-9.8273228844007239
30
0
11
43.00768856261999
21
-9.7384010844007225
31
0
0
LINE
5
885
100
AcDbEntity
8
0
100
AcDbLine
10
43.00768856261999
20
-9.7384010844007225
30
0
11
43.295789700119997
21
-9.5142143469007294
31
0
0
LINE
5
886
100
AcDbEntity
8
0
100
AcDbLine
10
43.295789700119997
20
-9.5142143469007294
30
0
11
43.371580387619979
21
-9.5850302844007338
31
0
0
LINE
5
887
100
AcDbEntity
8
0
100
AcDbLine
10
43.371580387619979
20
-9.5850302844007338
30
0
11
43.470410850120004
21
-9.6876734844007313
31
0
0
LINE
5
888
100
AcDbEntity
8
0
100
AcDbLine
10
43.470410850120004
20
-9.6876734844007313
30
0
11
43.567310812620008
21
-9.8080772844007313
31
0
0
LINE
5
889
100
AcDbEntity
8
0
100
AcDbLine
10
43.567310812620008
20
-9.8080772844007313
30
0
11
43.660479712619981
21
-9.9430192344007331
31
0
0
LINE
5
890
100
AcDbEntity
8
0
100
AcDbLine
10
43.660479712619981
20
-9.9430192344007331
30
0
11
43.748120700119976
21
-10.089280596900728
31
0
0
LINE
5
891
100
AcDbEntity
8
0
100
AcDbLine
10
43.748120700119976
20
-10.089280596900728
30
0
11
43.828429500120009
21
-10.243631496900733
31
0
0
LINE
5
892
100
AcDbEntity
8
0
100
AcDbLine
10
43.828429500120009
20
-10.243631496900733
30
0
11
43.899605550119993
21
-10.402856909400725
31
0
0
LINE
5
893
100
AcDbEntity
8
0
100
AcDbLine
10
43.899605550119993
20
-10.402856909400725
30
0
11
43.959848287619977
21
-10.563726959400723
31
0
0
LINE
5
894
100
AcDbEntity
8
0
100
AcDbLine
10
43.959848287619977
20
-10.563726959400723
30
0
11
44.007360862619969
21
-10.723019196900722
31
0
0
LINE
5
895
100
AcDbEntity
8
0
100
AcDbLine
10
44.007360862619969
20
-10.723019196900722
30
0
11
44.072025187619978
21
-10.974121559400734
31
0
0
LINE
5
896
100
AcDbEntity
8
0
100
AcDbLine
10
44.072025187619978
20
-10.974121559400734
30
0
11
44.071809862619993
21
-11.319380346900733
31
0
0
LINE
5
897
100
AcDbEntity
8
0
100
AcDbLine
10
44.071809862619993
20
-11.319380346900733
30
0
11
44.071594537619994
21
-11.664639134400723
31
0
0
LINE
5
898
100
AcDbEntity
8
0
100
AcDbLine
10
44.071594537619994
20
-11.664639134400723
30
0
11
44.010832050120001
21
-11.900048759400729
31
0
0
ARC
5
899
100
AcDbEntity
8
0
100
AcDbCircle
10
41.58826027074614
20
-11.2653881313281
30
0
40
2.5043258851523422
210
-0
220
0
230
1
100
AcDbArc
50
315.044878382489
51
345.31967743800334
0
LINE
5
900
100
AcDbEntity
8
0
100
AcDbLine
10
43.360472587619967
20
-13.03482635940072
30
0
11
43.144085812619998
21
-13.253125071900712
31
0
0
LINE
5
901
100
AcDbEntity
8
0
100
AcDbLine
10
43.144085812619998
20
-13.253125071900712
30
0
11
43.093770300119999
21
-13.239964259400715
31
0
0
LINE
5
902
100
AcDbEntity
8
0
100
AcDbLine
10
43.093770300119999
20
-13.239964259400715
30
0
11
43.084548450119982
21
-13.235472134400712
31
0
0
LINE
5
903
100
AcDbEntity
8
0
100
AcDbLine
10
43.084548450119982
20
-13.235472134400712
30
0
11
43.067545200119987
21
-13.224917496900721
31
0
0
LINE
5
904
100
AcDbEntity
8
0
100
AcDbLine
10
43.067545200119987
20
-13.224917496900721
30
0
11
43.043194912619995
21
-13.208615909400725
31
0
0
LINE
5
905
100
AcDbEntity
8
0
100
AcDbLine
10
43.043194912619995
20
-13.208615909400725
30
0
11
43.01192452511998
21
-13.186890359400715
31
0
0
LINE
5
906
100
AcDbEntity
8
0
100
AcDbLine
10
43.01192452511998
20
-13.186890359400715
30
0
11
42.930349762619983
21
-13.128440759400714
31
0
0
LINE
5
907
100
AcDbEntity
8
0
100
AcDbLine
10
42.930349762619983
20
-13.128440759400714
30
0
11
42.826266112619969
21
-13.052111759400709
31
0
0
LINE
5
908
100
AcDbEntity
8
0
100
AcDbLine
10
42.826266112619969
20
-13.052111759400709
30
0
11
42.703122487619993
21
-12.96045013440072
31
0
0
LINE
5
909
100
AcDbEntity
8
0
100
AcDbLine
10
42.703122487619993
20
-12.96045013440072
30
0
11
42.564364087619985
21
-12.856002659400721
31
0
0
LINE
5
910
100
AcDbEntity
8
0
100
AcDbLine
10
42.564364087619985
20
-12.856002659400721
30
0
11
42.413432400119987
21
-12.741316109400723
31
0
0
LINE
5
911
100
AcDbEntity
8
0
100
AcDbLine
10
42.413432400119987
20
-12.741316109400723
30
0
11
42.253772625119979
21
-12.618937259400722
31
0
0
LINE
5
912
100
AcDbEntity
8
0
100
AcDbLine
10
42.253772625119979
20
-12.618937259400722
30
0
11
41.46409046262
21
-12.011071071900719
31
0
0
LINE
5
913
100
AcDbEntity
8
0
100
AcDbLine
10
41.46409046262
20
-12.011071071900719
30
0
11
41.465486362619998
21
-11.47690172190072
31
0
0
LINE
5
914
100
AcDbEntity
8
0
100
AcDbLine
10
41.466878550119986
20
-10.942732371900741
30
0
11
41.706479587619974
21
-10.757467484400742
31
0
0
LINE
5
915
100
AcDbEntity
8
0
100
AcDbLine
10
41.465486362619998
20
-11.47690172190072
30
0
11
41.466878550119986
21
-10.942732371900741
31
0
0
LINE
5
916
100
AcDbEntity
8
0
100
AcDbLine
10
41.071746037620009
20
-14.103376671900705
30
0
11
41.440538362619996
21
-14.120268546900707
31
0
0
LINE
5
917
100
AcDbEntity
8
0
100
AcDbLine
10
41.440538362619996
20
-14.120268546900707
30
0
11
41.809326975119994
21
-14.137167846900716
31
0
0
LINE
5
918
100
AcDbEntity
8
0
100
AcDbLine
10
41.809326975119994
20
-14.137167846900716
30
0
11
42.047045775119976
21
-14.098821434400719
31
0
0
ARC
5
919
100
AcDbEntity
8
0
100
AcDbCircle
10
41.570724725791159
20
-11.209435740861986
30
0
40
2.928383756965609
210
-0
220
0
230
1
100
AcDbArc
50
279.36113062064243
51
296.99736618589094
0
LINE
5
920
100
AcDbEntity
8
0
100
AcDbLine
10
42.900063187619992
20
-13.81870588440071
30
0
11
43.096235400119994
21
-13.71961183440072
31
0
0
LINE
5
921
100
AcDbEntity
8
0
100
AcDbLine
10
43.096235400119994
20
-13.71961183440072
30
0
11
43.096506412619995
21
-14.606758259400705
31
0
0
LINE
5
922
100
AcDbEntity
8
0
100
AcDbLine
10
43.096506412619995
20
-14.606758259400705
30
0
11
43.096966762619992
21
-14.788329209400711
31
0
0
LINE
5
923
100
AcDbEntity
8
0
100
AcDbLine
10
43.096966762619992
20
-14.788329209400711
30
0
11
43.098173325119987
21
-14.964220034400711
31
0
0
LINE
5
924
100
AcDbEntity
8
0
100
AcDbLine
10
43.098173325119987
20
-14.964220034400711
30
0
11
43.100051850119996
21
-15.130120521900706
31
0
0
LINE
5
925
100
AcDbEntity
8
0
100
AcDbLine
10
43.100051850119996
20
-15.130120521900706
30
0
11
43.102513237619974
21
-15.281709321900712
31
0
0
LINE
5
926
100
AcDbEntity
8
0
100
AcDbLine
10
43.102513237619974
20
-15.281709321900712
30
0
11
43.105479525119975
21
-15.41467250940071
31
0
0
LINE
5
927
100
AcDbEntity
8
0
100
AcDbLine
10
43.105479525119975
20
-15.41467250940071
30
0
11
43.108865325119972
21
-15.524703584400712
31
0
0
LINE
5
928
100
AcDbEntity
8
0
100
AcDbLine
10
43.108865325119972
20
-15.524703584400712
30
0
11
43.112588962620002
21
-15.607477484400718
31
0
0
LINE
5
929
100
AcDbEntity
8
0
100
AcDbLine
10
43.112588962620002
20
-15.607477484400718
30
0
11
43.116572475119987
21
-15.658687709400706
31
0
0
LINE
5
930
100
AcDbEntity
8
0
100
AcDbLine
10
43.116572475119987
20
-15.658687709400706
30
0
11
43.136363812619997
21
-15.823470734400711
31
0
0
LINE
5
931
100
AcDbEntity
8
0
100
AcDbLine
10
43.136363812619997
20
-15.823470734400711
30
0
11
43.202613375120002
21
-15.818447721900711
31
0
0
ARC
5
932
100
AcDbEntity
8
0
100
AcDbCircle
10
42.913539597122572
20
-12.259164873342904
30
0
40
3.5710023866084795
210
-0
220
0
230
1
100
AcDbArc
50
274.6431921103968
51
277.35797286628059
0
LINE
5
933
100
AcDbEntity
8
0
100
AcDbLine
10
43.370871300119973
20
-15.800761371900718
30
0
11
43.472883375120006
21
-15.788105459400715
31
0
0
LINE
5
934
100
AcDbEntity
8
0
100
AcDbLine
10
43.472883375120006
20
-15.788105459400715
30
0
11
43.468829325119991
21
-15.107422296900715
31
0
0
ARC
5
935
100
AcDbEntity
8
0
100
AcDbCircle
10
11.399669846791713
20
-15.191404870230652
30
0
40
32.069269444735966
210
0
220
-0
230
1
100
AcDbArc
50
0.15004559155134775
51
2.2004413634155435
0
LINE
5
936
100
AcDbEntity
8
0
100
AcDbLine
10
43.445292075119966
20
-13.960089021900712
30
0
11
43.425801450119977
21
-13.493450046900715
31
0
0
LINE
5
937
100
AcDbEntity
8
0
100
AcDbLine
10
43.425801450119977
20
-13.493450046900715
30
0
11
43.646245987619977
21
-13.269571446900718
31
0
0
ARC
5
938
100
AcDbEntity
8
0
100
AcDbCircle
10
41.650944018875357
20
-11.312396044673196
30
0
40
2.7949535777111958
210
-0
220
0
230
1
100
AcDbArc
50
-44.447327994107226
51
0.10941704636041638
0
LINE
5
939
100
AcDbEntity
8
0
100
AcDbLine
10
44.445892500119974
20
-11.307058559400883
30
0
11
44.440320037619998
21
-11.120516571900723
31
0
0
LINE
5
940
100
AcDbEntity
8
0
100
AcDbLine
10
44.440320037619998
20
-11.120516571900723
30
0
11
44.423391037619993
21
-10.939387409400725
31
0
0
LINE
5
941
100
AcDbEntity
8
0
100
AcDbLine
10
44.423391037619993
20
-10.939387409400725
30
0
11
44.394797362619983
21
-10.762516484400733
31
0
0
LINE
5
942
100
AcDbEntity
8
0
100
AcDbLine
10
44.394797362619983
20
-10.762516484400733
30
0
11
44.354227162619978
21
-10.588752921900735
31
0
0
LINE
5
943
100
AcDbEntity
8
0
100
AcDbLine
10
44.354227162619978
20
-10.588752921900735
30
0
11
44.301364875119987
21
-10.416942134400722
31
0
0
LINE
5
944
100
AcDbEntity
8
0
100
AcDbLine
10
44.301364875119987
20
-10.416942134400722
30
0
11
44.235898650119978
21
-10.24592210940073
31
0
0
LINE
5
945
100
AcDbEntity
8
0
100
AcDbLine
10
44.235898650119978
20
-10.24592210940073
30
0
11
44.157516637619963
21
-10.074545684400743
31
0
0
LINE
5
946
100
AcDbEntity
8
0
100
AcDbLine
10
44.157516637619963
20
-10.074545684400743
30
0
11
44.065906987619982
21
-9.9016471344007293
31
0
0
LINE
5
947
100
AcDbEntity
8
0
100
AcDbLine
10
44.065906987619982
20
-9.9016471344007293
30
0
11
43.928002462619993
21
-9.657557684400734
31
0
0
LINE
5
948
100
AcDbEntity
8
0
100
AcDbLine
10
43.928002462619993
20
-9.657557684400734
30
0
11
43.654079362619996
21
-9.3746911719007269
31
0
0
LINE
5
949
100
AcDbEntity
8
0
100
AcDbLine
10
43.654079362619996
20
-9.3746911719007269
30
0
11
43.38015997511998
21
-9.0918246594007339
31
0
0
LINE
5
950
100
AcDbEntity
8
0
100
AcDbLine
10
43.38015997511998
20
-9.0918246594007339
30
0
11
43.358720287619988
21
-7.9849464969007391
31
0
0
LINE
5
951
100
AcDbEntity
8
0
100
AcDbLine
10
43.358720287619988
20
-7.9849464969007391
30
0
11
43.337280600119996
21
-6.8780646219007462
31
0
0
LINE
5
952
100
AcDbEntity
8
0
100
AcDbLine
10
43.337280600119996
20
-6.8780646219007462
30
0
11
43.169672362619977
21
-6.8780646219007462
31
0
0
LINE
5
953
100
AcDbEntity
8
0
100
AcDbLine
10
43.169672362619977
20
-6.8780646219007462
30
0
11
43.002067837619968
21
-6.8780646219007462
31
0
0
LINE
5
954
100
AcDbEntity
8
0
100
AcDbLine
10
43.002067837619968
20
-6.8780646219007462
30
0
11
43.002067837619968
21
-7.8672973719007384
31
0
0
LINE
5
955
100
AcDbEntity
8
0
100
AcDbLine
10
43.002067837619968
20
-7.8672973719007384
30
0
11
43.002067837619968
21
-8.8565301219007431
31
0
0
LINE
5
956
100
AcDbEntity
8
0
100
AcDbLine
10
43.002067837619968
20
-8.8565301219007431
30
0
11
42.852981262619984
21
-8.7811886469007234
31
0
0
LINE
5
957
100
AcDbEntity
8
0
100
AcDbLine
10
42.852981262619984
20
-8.7811886469007234
30
0
11
42.646068787619981
21
-8.6924079219007293
31
0
0
LINE
5
958
100
AcDbEntity
8
0
100
AcDbLine
10
42.646068787619981
20
-8.6924079219007293
30
0
11
42.403739062619977
21
-8.6142709344007411
31
0
0
LINE
5
959
100
AcDbEntity
8
0
100
AcDbLine
10
42.403739062619977
20
-8.6142709344007411
30
0
11
42.146035875120006
21
-8.5523872719007432
31
0
0
LINE
5
960
100
AcDbEntity
8
0
100
AcDbLine
10
42.146035875120006
20
-8.5523872719007432
30
0
11
41.892999300119975
21
-8.5123739469007305
31
0
0
LINE
5
961
100
AcDbEntity
8
0
100
AcDbLine
10
41.892999300119975
20
-8.5123739469007305
30
0
11
41.588139937619999
21
-8.4783785844007227
31
0
0
LINE
5
962
100
AcDbEntity
8
0
100
AcDbLine
10
41.588139937619999
20
-8.4783785844007227
30
0
11
41.314250250119997
21
-8.5096044219007361
31
0
0
LINE
5
963
100
AcDbEntity
8
0
100
AcDbLine
10
41.314250250119997
20
-8.5096044219007361
30
0
11
41.057337825120001
21
-8.5485782469007372
31
0
0
LINE
5
964
100
AcDbEntity
8
0
100
AcDbLine
10
41.057337825120001
20
-8.5485782469007372
30
0
11
40.811915587619978
21
-8.6057061969007318
31
0
0
LINE
5
965
100
AcDbEntity
8
0
100
AcDbLine
10
40.811915587619978
20
-8.6057061969007318
30
0
11
40.57763827511998
21
-8.6811367719007286
31
0
0
LINE
5
966
100
AcDbEntity
8
0
100
AcDbLine
10
40.57763827511998
20
-8.6811367719007286
30
0
11
40.354179187619998
21
-8.7750370344007376
31
0
0
LINE
5
967
100
AcDbEntity
8
0
100
AcDbLine
10
40.354179187619998
20
-8.7750370344007376
30
0
11
40.141189350120001
21
-8.8875666219007261
31
0
0
LINE
5
968
100
AcDbEntity
8
0
100
AcDbLine
10
40.141189350120001
20
-8.8875666219007261
30
0
11
39.938338350119992
21
-9.0188814594007276
31
0
0
LINE
5
969
100
AcDbEntity
8
0
100
AcDbLine
10
39.938338350119992
20
-9.0188814594007276
30
0
11
39.745284637619996
21
-9.1691448969007201
31
0
0
LINE
5
970
100
AcDbEntity
8
0
100
AcDbLine
10
39.745284637619996
20
-9.1691448969007201
30
0
11
39.561690375119994
21
-9.3385128594007405
31
0
0
ARC
5
971
100
AcDbEntity
8
0
100
AcDbCircle
10
41.533198842194857
20
-11.327982967109861
30
0
40
2.8008636070355175
210
0
220
0
230
1
100
AcDbArc
50
134.74018563136661
51
174.84093151473547
0
LINE
5
972
100
AcDbEntity
8
0
100
AcDbLine
10
38.743681837620002
20
-11.076126209400725
30
0
11
38.724172650119996
21
-11.303687609400733
31
0
0
LINE
5
973
100
AcDbEntity
8
0
100
AcDbLine
10
38.724172650119996
20
-11.303687609400733
30
0
11
38.509070400119995
21
-11.303687609400733
31
0
0
LINE
5
974
100
AcDbEntity
8
0
100
AcDbLine
10
38.509070400119995
20
-11.303687609400733
30
0
11
38.293964437620012
21
-11.303687609400733
31
0
0
LINE
5
975
100
AcDbEntity
8
0
100
AcDbLine
10
38.293964437620012
20
-11.303687609400733
30
0
11
38.293964437620012
21
-11.476318859400729
31
0
0
LINE
5
976
100
AcDbEntity
8
0
100
AcDbLine
10
38.293964437620012
20
-11.476318859400729
30
0
11
38.293964437620012
21
-11.64895010940073
31
0
0
LINE
5
977
100
AcDbEntity
8
0
100
AcDbLine
10
38.293964437620012
20
-11.64895010940073
30
0
11
38.52937035011999
21
-11.64895010940073
31
0
0
LINE
5
978
100
AcDbEntity
8
0
100
AcDbLine
10
38.52937035011999
20
-11.64895010940073
30
0
11
38.764772550119993
21
-11.64895010940073
31
0
0
LINE
5
979
100
AcDbEntity
8
0
100
AcDbLine
10
38.764772550119993
20
-11.64895010940073
30
0
11
38.764772550119993
21
-11.723905484400724
31
0
0
LINE
5
980
100
AcDbEntity
8
0
100
AcDbLine
10
38.764772550119993
20
-11.723905484400724
30
0
11
38.771477325119996
21
-11.786178959400722
31
0
0
LINE
5
981
100
AcDbEntity
8
0
100
AcDbLine
10
38.771477325119996
20
-11.786178959400722
30
0
11
38.790036112619994
21
-11.874480771900725
31
0
0
LINE
5
982
100
AcDbEntity
8
0
100
AcDbLine
10
38.790036112619994
20
-11.874480771900725
30
0
11
38.818128600120005
21
-11.981423046900726
31
0
0
LINE
5
983
100
AcDbEntity
8
0
100
AcDbLine
10
38.818128600120005
20
-11.981423046900726
30
0
11
38.853430762619993
21
-12.099614196900719
31
0
0
LINE
5
984
100
AcDbEntity
8
0
100
AcDbLine
10
38.853430762619993
20
-12.099614196900719
30
0
11
38.893626000119994
21
-12.221666346900728
31
0
0
LINE
5
985
100
AcDbEntity
8
0
100
AcDbLine
10
38.893626000119994
20
-12.221666346900728
30
0
11
38.93639028762
21
-12.340191621900731
31
0
0
LINE
5
986
100
AcDbEntity
8
0
100
AcDbLine
10
38.93639028762
20
-12.340191621900731
30
0
11
38.979399600119997
21
-12.447798434400724
31
0
0
LINE
5
987
100
AcDbEntity
8
0
100
AcDbLine
10
38.979399600119997
20
-12.447798434400724
30
0
11
39.020333625120003
21
-12.537102621900736
31
0
0
LINE
5
988
100
AcDbEntity
8
0
100
AcDbLine
10
39.020333625120003
20
-12.537102621900736
30
0
11
39.101644800119999
21
-12.689122071900725
31
0
0
LINE
5
989
100
AcDbEntity
8
0
100
AcDbLine
10
39.101644800119999
20
-12.689122071900725
30
0
11
39.188120062620001
21
-12.832235234400722
31
0
0
LINE
5
990
100
AcDbEntity
8
0
100
AcDbLine
10
39.188120062620001
20
-12.832235234400722
30
0
11
39.280219762619993
21
-12.967006409400717
31
0
0
LINE
5
991
100
AcDbEntity
8
0
100
AcDbLine
10
39.280219762619993
20
-12.967006409400717
30
0
11
39.378407962620003
21
-13.093996184400719
31
0
0
LINE
5
992
100
AcDbEntity
8
0
100
AcDbLine
10
39.378407962620003
20
-13.093996184400719
30
0
11
39.48314501262
21
-13.21377257190071
31
0
0
LINE
5
993
100
AcDbEntity
8
0
100
AcDbLine
10
39.48314501262
20
-13.21377257190071
30
0
11
39.594894975119992
21
-13.326892446900715
31
0
0
LINE
5
994
100
AcDbEntity
8
0
100
AcDbLine
10
39.594894975119992
20
-13.326892446900715
30
0
11
39.714118200120005
21
-13.433927534400727
31
0
0
LINE
5
995
100
AcDbEntity
8
0
100
AcDbLine
10
39.714118200120005
20
-13.433927534400727
30
0
11
39.841282462620001
21
-13.535430996900729
31
0
0
LINE
5
996
100
AcDbEntity
8
0
100
AcDbLine
10
40.795903575120001
20
-14.021586584400708
30
0
11
41.071746037620009
21
-14.103376671900705
31
0
0
ARC
5
997
100
AcDbEntity
8
0
100
AcDbCircle
10
41.663881803344808
20
-11.136883127818782
30
0
40
3.0124575079307014
210
0
220
0
230
1
100
AcDbArc
50
232.7696640020003
51
253.25398798915265
0
LINE
5
998
100
AcDbEntity
8
0
100
AcDbLine
10
33.52239585012002
20
-15.093712034400717
30
0
11
33.523695225120029
21
-15.029363271900703
31
0
0
LINE
5
999
100
AcDbEntity
8
0
100
AcDbLine
10
33.523695225120029
20
-15.029363271900703
30
0
11
33.527975737620025
21
-14.935507559400714
31
0
0
LINE
5
1000
100
AcDbEntity
8
0
100
AcDbLine
10
33.527975737620025
20
-14.935507559400714
30
0
11
33.534855000120025
21
-14.816789234400712
31
0
0
LINE
5
1001
100
AcDbEntity
8
0
100
AcDbLine
10
33.534855000120025
20
-14.816789234400712
30
0
11
33.543946912620029
21
-14.677856346900718
31
0
0
LINE
5
1002
100
AcDbEntity
8
0
100
AcDbLine
10
33.543946912620029
20
-14.677856346900718
30
0
11
33.567231712620014
21
-14.357913096900702
31
0
0
LINE
5
1003
100
AcDbEntity
8
0
100
AcDbLine
10
33.567231712620014
20
-14.357913096900702
30
0
11
33.594748762620014
21
-14.012832509400706
31
0
0
LINE
5
1004
100
AcDbEntity
8
0
100
AcDbLine
10
33.594748762620014
20
-14.012832509400706
30
0
11
33.60913841262002
21
-13.842473309400711
31
0
0
LINE
5
1005
100
AcDbEntity
8
0
100
AcDbLine
10
33.60913841262002
20
-13.842473309400711
30
0
11
33.623427825120025
21
-13.679765571900715
31
0
0
LINE
5
1006
100
AcDbEntity
8
0
100
AcDbLine
10
33.623427825120025
20
-13.679765571900715
30
0
11
33.637238325120038
21
-13.529342496900721
31
0
0
LINE
5
1007
100
AcDbEntity
8
0
100
AcDbLine
10
33.637238325120038
20
-13.529342496900721
30
0
11
33.650180100120011
21
-13.395859559400714
31
0
0
LINE
5
1008
100
AcDbEntity
8
0
100
AcDbLine
10
33.650180100120011
20
-13.395859559400714
30
0
11
33.661874475120015
21
-13.283953671900717
31
0
0
LINE
5
1009
100
AcDbEntity
8
0
100
AcDbLine
10
33.661874475120015
20
-13.283953671900717
30
0
11
33.67193535012003
21
-13.19827288440071
31
0
0
LINE
5
1010
100
AcDbEntity
8
0
100
AcDbLine
10
33.67193535012003
20
-13.19827288440071
30
0
11
33.67997291262003
21
-13.143457821900707
31
0
0
LINE
5
1011
100
AcDbEntity
8
0
100
AcDbLine
10
33.67997291262003
20
-13.143457821900707
30
0
11
33.685608487620023
21
-13.124152821900715
31
0
0
LINE
5
1012
100
AcDbEntity
8
0
100
AcDbLine
10
33.685608487620023
20
-13.124152821900715
30
0
11
33.695624812620032
21
-13.13771829690072
31
0
0
LINE
5
1013
100
AcDbEntity
8
0
100
AcDbLine
10
33.695624812620032
20
-13.13771829690072
30
0
11
33.70382943762003
21
-13.17464653440071
31
0
0
LINE
5
1014
100
AcDbEntity
8
0
100
AcDbLine
10
33.70382943762003
20
-13.17464653440071
30
0
11
33.709368487620011
21
-13.229301959400711
31
0
0
LINE
5
1015
100
AcDbEntity
8
0
100
AcDbLine
10
33.709368487620011
20
-13.229301959400711
30
0
11
33.711406650120011
21
-13.296041571900709
31
0
0
LINE
5
1016
100
AcDbEntity
8
0
100
AcDbLine
10
33.711406650120011
20
-13.296041571900709
30
0
11
33.712342200120027
21
-13.343873421900721
31
0
0
LINE
5
1017
100
AcDbEntity
8
0
100
AcDbLine
10
33.712342200120027
20
-13.343873421900721
30
0
11
33.715015200120028
21
-13.414258709400714
31
0
0
LINE
5
1018
100
AcDbEntity
8
0
100
AcDbLine
10
33.715015200120028
20
-13.414258709400714
30
0
11
33.719232600120044
21
-13.504097496900727
31
0
0
LINE
5
1019
100
AcDbEntity
8
0
100
AcDbLine
10
33.719232600120044
20
-13.504097496900727
30
0
11
33.724782787620036
21
-13.610289846900713
31
0
0
LINE
5
1020
100
AcDbEntity
8
0
100
AcDbLine
10
33.724782787620036
20
-13.610289846900713
30
0
11
33.739109325120026
21
-13.859320634400714
31
0
0
LINE
5
1021
100
AcDbEntity
8
0
100
AcDbLine
10
33.739109325120026
20
-13.859320634400714
30
0
11
33.756394725120032
21
-14.136533009400715
31
0
0
LINE
5
1022
100
AcDbEntity
8
0
100
AcDbLine
10
33.756394725120032
20
-14.136533009400715
30
0
11
33.775042612619998
21
-14.41711633440071
31
0
0
LINE
5
1023
100
AcDbEntity
8
0
100
AcDbLine
10
33.775042612619998
20
-14.41711633440071
30
0
11
33.793449187620027
21
-14.676252546900708
31
0
0
LINE
5
1024
100
AcDbEntity
8
0
100
AcDbLine
10
33.793449187620027
20
-14.676252546900708
30
0
11
33.802065900119999
21
-14.790025821900702
31
0
0
LINE
5
1025
100
AcDbEntity
8
0
100
AcDbLine
10
33.802065900119999
20
-14.790025821900702
30
0
11
33.81002550012002
21
-14.889131009400716
31
0
0
LINE
5
1026
100
AcDbEntity
8
0
100
AcDbLine
10
33.81002550012002
20
-14.889131009400716
30
0
11
33.817123800120008
21
-14.970471884400707
31
0
0
LINE
5
1027
100
AcDbEntity
8
0
100
AcDbLine
10
33.817123800120008
20
-14.970471884400707
30
0
11
33.823164037620025
21
-15.030937371900723
31
0
0
LINE
5
1028
100
AcDbEntity
8
0
100
AcDbLine
10
33.823164037620025
20
-15.030937371900723
30
0
11
33.841474087620007
21
-15.195724109400706
31
0
0
LINE
5
1029
100
AcDbEntity
8
0
100
AcDbLine
10
33.841474087620007
20
-15.195724109400706
30
0
11
33.682274662620017
21
-15.195724109400706
31
0
0
LINE
5
1030
100
AcDbEntity
8
0
100
AcDbLine
10
33.523082662620027
20
-15.195724109400706
30
0
11
33.52239585012002
21
-15.093712034400717
31
0
0
LINE
5
1031
100
AcDbEntity
8
0
100
AcDbLine
10
33.682274662620017
20
-15.195724109400706
30
0
11
33.523082662620027
21
-15.195724109400706
31
0
0
LINE
5
1032
100
AcDbEntity
8
0
100
AcDbLine
10
31.944772687620034
20
-14.936992559400718
30
0
11
32.039924062620031
21
-14.929222296900711
31
0
0
LINE
5
1033
100
AcDbEntity
8
0
100
AcDbLine
10
32.039924062620031
20
-14.929222296900711
30
0
11
32.119278750120024
21
-14.919347046900715
31
0
0
LINE
5
1034
100
AcDbEntity
8
0
100
AcDbLine
10
32.119278750120024
20
-14.919347046900715
30
0
11
32.186144587620014
21
-14.906108271900711
31
0
0
LINE
5
1035
100
AcDbEntity
8
0
100
AcDbLine
10
32.186144587620014
20
-14.906108271900711
30
0
11
32.24382941262003
21
-14.88825485940071
31
0
0
LINE
5
1036
100
AcDbEntity
8
0
100
AcDbLine
10
32.24382941262003
20
-14.88825485940071
30
0
11
32.344887375120045
21
-14.833669971900708
31
0
0
LINE
5
1037
100
AcDbEntity
8
0
100
AcDbLine
10
32.344887375120045
20
-14.833669971900708
30
0
11
32.448922762620029
21
-14.745542646900709
31
0
0
LINE
5
1038
100
AcDbEntity
8
0
100
AcDbLine
10
32.448922762620029
20
-14.745542646900709
30
0
11
32.551792425120013
21
-14.648156346900713
31
0
0
LINE
5
1039
100
AcDbEntity
8
0
100
AcDbLine
10
32.551792425120013
20
-14.648156346900713
30
0
11
32.598807525120023
21
-14.49036395940071
31
0
0
LINE
5
1040
100
AcDbEntity
8
0
100
AcDbLine
10
32.598807525120023
20
-14.49036395940071
30
0
11
32.645826337620015
21
-14.332567859400719
31
0
0
LINE
5
1041
100
AcDbEntity
8
0
100
AcDbLine
10
32.645826337620015
20
-14.332567859400719
30
0
11
32.663724300120016
21
-13.90884167190071
31
0
0
ARC
5
1042
100
AcDbEntity
8
0
100
AcDbCircle
10
25.478782975732166
20
-13.605888625168427
30
0
40
7.1913254955828974
210
-0
220
0
230
1
100
AcDbArc
50
-2.4144463162948404
51
4.3424298008688167
0
LINE
5
1043
100
AcDbEntity
8
0
100
AcDbLine
10
32.64946458762001
20
-13.061381871900746
30
0
11
32.617318050120019
21
-12.637648259400718
31
0
0
LINE
5
1044
100
AcDbEntity
8
0
100
AcDbLine
10
32.617318050120019
20
-12.637648259400718
30
0
11
32.566668412620025
21
-12.496524996900721
31
0
0
ARC
5
1045
100
AcDbEntity
8
0
100
AcDbCircle
10
31.930365545566886
20
-12.720276850531718
30
0
40
0.67449702047032578
210
0
220
-0
230
1
100
AcDbArc
50
19.373899304201291
51
43.735551793502623
0
LINE
5
1046
100
AcDbEntity
8
0
100
AcDbLine
10
32.417715487620015
20
-12.253976234400717
30
0
11
32.319408487620017
21
-12.152550734400718
31
0
0
LINE
5
1047
100
AcDbEntity
8
0
100
AcDbLine
10
32.319408487620017
20
-12.152550734400718
30
0
11
32.160101400120006
21
-12.09954737190073
31
0
0
LINE
5
1048
100
AcDbEntity
8
0
100
AcDbLine
10
32.160101400120006
20
-12.09954737190073
30
0
11
32.000798025120012
21
-12.04653287190073
31
0
0
LINE
5
1049
100
AcDbEntity
8
0
100
AcDbLine
10
32.000798025120012
20
-12.04653287190073
30
0
11
31.454399700120021
21
-12.051492771900719
31
0
0
LINE
5
1050
100
AcDbEntity
8
0
100
AcDbLine
10
31.454399700120021
20
-12.051492771900719
30
0
11
31.344498562620032
21
-12.052651071900719
31
0
0
LINE
5
1051
100
AcDbEntity
8
0
100
AcDbLine
10
31.344498562620032
20
-12.052651071900719
30
0
11
31.241695725120042
21
-12.054054396900717
31
0
0
LINE
5
1052
100
AcDbEntity
8
0
100
AcDbLine
10
31.241695725120042
20
-12.054054396900717
30
0
11
31.148259525120015
21
-12.055643346900728
31
0
0
LINE
5
1053
100
AcDbEntity
8
0
100
AcDbLine
10
31.148259525120015
20
-12.055643346900728
30
0
11
31.06646201262004
21
-12.057373371900724
31
0
0
LINE
5
1054
100
AcDbEntity
8
0
100
AcDbLine
10
31.06646201262004
20
-12.057373371900724
30
0
11
30.998567812620024
21
-12.059181359400725
31
0
0
LINE
5
1055
100
AcDbEntity
8
0
100
AcDbLine
10
30.998567812620024
20
-12.059181359400725
30
0
11
30.946852687620037
21
-12.061015334400729
31
0
0
LINE
5
1056
100
AcDbEntity
8
0
100
AcDbLine
10
30.946852687620037
20
-12.061015334400729
30
0
11
30.913584975120038
21
-12.062827034400719
31
0
0
LINE
5
1057
100
AcDbEntity
8
0
100
AcDbLine
10
30.913584975120038
20
-12.062827034400719
30
0
11
30.901029300120015
21
-12.06456077190072
31
0
0
LINE
5
1058
100
AcDbEntity
8
0
100
AcDbLine
10
30.901029300120015
20
-12.06456077190072
30
0
11
30.900405600120017
21
-12.077966609400725
31
0
0
LINE
5
1059
100
AcDbEntity
8
0
100
AcDbLine
10
30.900405600120017
20
-12.077966609400725
30
0
11
30.899963812620026
21
-12.115678184400732
31
0
0
LINE
5
1060
100
AcDbEntity
8
0
100
AcDbLine
10
30.899963812620026
20
-12.115678184400732
30
0
11
30.899703937620025
21
-12.176451809400728
31
0
0
LINE
5
1061
100
AcDbEntity
8
0
100
AcDbLine
10
30.899703937620025
20
-12.176451809400728
30
0
11
30.899622262620028
21
-12.259032659400724
31
0
0
LINE
5
1062
100
AcDbEntity
8
0
100
AcDbLine
10
30.899622262620028
20
-12.259032659400724
30
0
11
30.899707650120014
21
-12.362180759400719
31
0
0
LINE
5
1063
100
AcDbEntity
8
0
100
AcDbLine
10
30.899707650120014
20
-12.362180759400719
30
0
11
30.89996010012004
21
-12.484648709400723
31
0
0
LINE
5
1064
100
AcDbEntity
8
0
100
AcDbLine
10
30.89996010012004
20
-12.484648709400723
30
0
11
30.900372187620032
21
-12.625181684400726
31
0
0
LINE
5
1065
100
AcDbEntity
8
0
100
AcDbLine
10
30.900372187620032
20
-12.625181684400726
30
0
11
30.900940200120029
21
-12.782539709400723
31
0
0
LINE
5
1066
100
AcDbEntity
8
0
100
AcDbLine
10
30.900940200120029
20
-12.782539709400723
30
0
11
30.901660425120024
21
-12.955475384400707
31
0
0
LINE
5
1067
100
AcDbEntity
8
0
100
AcDbLine
10
30.901660425120024
20
-12.955475384400707
30
0
11
30.902529150120024
21
-13.142737596900712
31
0
0
LINE
5
1068
100
AcDbEntity
8
0
100
AcDbLine
10
30.902529150120024
20
-13.142737596900712
30
0
11
30.903535237620019
21
-13.343078946900707
31
0
0
LINE
5
1069
100
AcDbEntity
8
0
100
AcDbLine
10
30.903535237620019
20
-13.343078946900707
30
0
11
30.90467868762002
21
-13.555255746900716
31
0
0
LINE
5
1070
100
AcDbEntity
8
0
100
AcDbLine
10
30.90467868762002
20
-13.555255746900716
30
0
11
30.907359112620043
21
-14.010122384400709
31
0
0
LINE
5
1071
100
AcDbEntity
8
0
100
AcDbLine
10
30.907359112620043
20
-14.010122384400709
30
0
11
30.910525875120033
21
-14.497350884400706
31
0
0
LINE
5
1072
100
AcDbEntity
8
0
100
AcDbLine
10
30.910525875120033
20
-14.497350884400706
30
0
11
30.926994525120026
21
-16.922029184400703
31
0
0
LINE
5
1073
100
AcDbEntity
8
0
100
AcDbLine
10
30.926994525120026
20
-16.922029184400703
30
0
11
31.330862550120013
21
-16.922029184400703
31
0
0
LINE
5
1074
100
AcDbEntity
8
0
100
AcDbLine
10
31.330862550120013
20
-16.922029184400703
30
0
11
31.734730575120022
21
-16.922029184400703
31
0
0
LINE
5
1075
100
AcDbEntity
8
0
100
AcDbLine
10
31.734730575120022
20
-16.922029184400703
30
0
11
31.713725250120028
21
-15.938149859400713
31
0
0
LINE
5
1076
100
AcDbEntity
8
0
100
AcDbLine
10
31.69271621262002
20
-14.954270534400717
30
0
11
31.944772687620034
21
-14.936992559400718
31
0
0
LINE
5
1077
100
AcDbEntity
8
0
100
AcDbLine
10
31.713725250120028
20
-15.938149859400713
30
0
11
31.69271621262002
21
-14.954270534400717
31
0
0
LINE
5
1078
100
AcDbEntity
8
0
100
AcDbLine
10
31.702610025120002
20
-12.834863684400721
30
0
11
31.788925650120014
21
-12.855297284400713
31
0
0
ARC
5
1079
100
AcDbEntity
8
0
100
AcDbCircle
10
31.729919616661817
20
-13.112494521782203
30
0
40
0.26387900807214759
210
0
220
-0
230
1
100
AcDbArc
50
40.634670713688564
51
77.078834580411609
0
LINE
5
1080
100
AcDbEntity
8
0
100
AcDbLine
10
31.930171425120019
20
-12.940647659400719
30
0
11
31.985097862620016
21
-13.005560721900714
31
0
0
LINE
5
1081
100
AcDbEntity
8
0
100
AcDbLine
10
31.985097862620016
20
-13.005560721900714
30
0
11
31.985097862620016
21
-13.497296196900717
31
0
0
LINE
5
1082
100
AcDbEntity
8
0
100
AcDbLine
10
31.985097862620016
20
-13.497296196900717
30
0
11
31.985097862620016
21
-13.989035384400712
31
0
0
LINE
5
1083
100
AcDbEntity
8
0
100
AcDbLine
10
31.985097862620016
20
-13.989035384400712
30
0
11
31.936241362620024
21
-14.058793259400703
31
0
0
LINE
5
1084
100
AcDbEntity
8
0
100
AcDbLine
10
31.936241362620024
20
-14.058793259400703
30
0
11
31.887373725120021
21
-14.128551134400711
31
0
0
LINE
5
1085
100
AcDbEntity
8
0
100
AcDbLine
10
31.887373725120021
20
-14.128551134400711
30
0
11
31.794991875120033
21
-14.128551134400711
31
0
0
LINE
5
1086
100
AcDbEntity
8
0
100
AcDbLine
10
31.794991875120033
20
-14.128551134400711
30
0
11
31.702610025120002
21
-14.128551134400711
31
0
0
LINE
5
1087
100
AcDbEntity
8
0
100
AcDbLine
10
31.702610025120002
20
-13.481707409400714
30
0
11
31.702610025120002
21
-12.834863684400721
31
0
0
LINE
5
1088
100
AcDbEntity
8
0
100
AcDbLine
10
31.702610025120002
20
-14.128551134400711
30
0
11
31.702610025120002
21
-13.481707409400714
31
0
0
ARC
5
1089
100
AcDbEntity
8
0
100
AcDbCircle
10
26.628822384885797
20
-13.243118195956363
30
0
40
3.911493193355573
210
0
220
-0
230
1
100
AcDbArc
50
0.018464779199407168
51
7.202211304770092
0
LINE
5
1090
100
AcDbEntity
8
0
100
AcDbLine
10
30.509453362620008
20
-12.75272833440072
30
0
11
30.479564025120006
21
-12.522549621900723
31
0
0
LINE
5
1091
100
AcDbEntity
8
0
100
AcDbLine
10
30.479564025120006
20
-12.522549621900723
30
0
11
30.397127962620019
21
-12.371090759400714
31
0
0
LINE
5
1092
100
AcDbEntity
8
0
100
AcDbLine
10
30.397127962620019
20
-12.371090759400714
30
0
11
30.314695612620028
21
-12.219628184400726
31
0
0
LINE
5
1093
100
AcDbEntity
8
0
100
AcDbLine
10
30.314695612620028
20
-12.219628184400726
30
0
11
30.184561350120028
21
-12.126169709400729
31
0
0
ARC
5
1094
100
AcDbEntity
8
0
100
AcDbCircle
10
29.660621769419535
20
-12.833673929952621
30
0
40
0.88038338598780286
210
0
220
-0
230
1
100
AcDbArc
50
53.47834157864073
51
72.483775282523069
0
LINE
5
1095
100
AcDbEntity
8
0
100
AcDbLine
10
29.925595912620029
20
-11.99411237190073
30
0
11
29.79676473762003
21
-11.955517221900729
31
0
0
LINE
5
1096
100
AcDbEntity
8
0
100
AcDbLine
10
29.79676473762003
20
-11.955517221900729
30
0
11
29.56175977512002
21
-11.967386084400719
31
0
0
LINE
5
1097
100
AcDbEntity
8
0
100
AcDbLine
10
29.56175977512002
20
-11.967386084400719
30
0
11
29.326751100120045
21
-11.97925123440073
31
0
0
LINE
5
1098
100
AcDbEntity
8
0
100
AcDbLine
10
29.326751100120045
20
-11.97925123440073
30
0
11
29.172871687620045
21
-12.074172434400728
31
0
0
LINE
5
1099
100
AcDbEntity
8
0
100
AcDbLine
10
29.172871687620045
20
-12.074172434400728
30
0
11
29.018992275120027
21
-12.169093634400721
31
0
0
LINE
5
1100
100
AcDbEntity
8
0
100
AcDbLine
10
29.018992275120027
20
-12.169093634400721
30
0
11
28.919942775120031
21
-12.334255334400726
31
0
0
LINE
5
1101
100
AcDbEntity
8
0
100
AcDbLine
10
28.919942775120031
20
-12.334255334400726
30
0
11
28.820893275120024
21
-12.499413321900716
31
0
0
LINE
5
1102
100
AcDbEntity
8
0
100
AcDbLine
10
28.820893275120024
20
-12.499413321900716
30
0
11
28.786545225120037
21
-12.696651021900713
31
0
0
LINE
5
1103
100
AcDbEntity
8
0
100
AcDbLine
10
28.786545225120037
20
-12.696651021900713
30
0
11
28.772630775120032
21
-12.804836984400714
31
0
0
LINE
5
1104
100
AcDbEntity
8
0
100
AcDbLine
10
28.772630775120032
20
-12.804836984400714
30
0
11
28.762417687620044
21
-12.941765121900715
31
0
0
LINE
5
1105
100
AcDbEntity
8
0
100
AcDbLine
10
28.762417687620044
20
-12.941765121900715
30
0
11
28.755954225120032
21
-13.09737455940072
31
0
0
LINE
5
1106
100
AcDbEntity
8
0
100
AcDbLine
10
28.755954225120032
20
-13.09737455940072
30
0
11
28.753284937620034
21
-13.26160813440071
31
0
0
LINE
5
1107
100
AcDbEntity
8
0
100
AcDbLine
10
28.753284937620034
20
-13.26160813440071
30
0
11
28.75445808762003
21
-13.42440497190071
31
0
0
LINE
5
1108
100
AcDbEntity
8
0
100
AcDbLine
10
28.75445808762003
20
-13.42440497190071
30
0
11
28.759518225120036
21
-13.575711621900716
31
0
0
LINE
5
1109
100
AcDbEntity
8
0
100
AcDbLine
10
28.759518225120036
20
-13.575711621900716
30
0
11
28.768513612620033
21
-13.705463496900725
31
0
0
LINE
5
1110
100
AcDbEntity
8
0
100
AcDbLine
10
28.768513612620033
20
-13.705463496900725
30
0
11
28.78148508762003
21
-13.803603434400721
31
0
0
ARC
5
1111
100
AcDbEntity
8
0
100
AcDbCircle
10
30.774736018777986
20
-13.408708443172166
30
0
40
2.0319919607762857
210
0
220
0
230
1
100
AcDbArc
50
191.20610394304842
51
200.98022855335375
0
LINE
5
1112
100
AcDbEntity
8
0
100
AcDbLine
10
28.877456925120029
20
-14.136254571900704
30
0
11
28.944137137620032
21
-14.314469421900704
31
0
0
LINE
5
1113
100
AcDbEntity
8
0
100
AcDbLine
10
28.944137137620032
20
-14.314469421900704
30
0
11
29.337461662620044
21
-14.731557659400703
31
0
0
LINE
5
1114
100
AcDbEntity
8
0
100
AcDbLine
10
29.337461662620044
20
-14.731557659400703
30
0
11
29.494207125120042
21
-14.900933046900708
31
0
0
LINE
5
1115
100
AcDbEntity
8
0
100
AcDbLine
10
29.494207125120042
20
-14.900933046900708
30
0
11
29.630221987620018
21
-15.053784096900708
31
0
0
LINE
5
1116
100
AcDbEntity
8
0
100
AcDbLine
10
29.630221987620018
20
-15.053784096900708
30
0
11
29.685902062620031
21
-15.118767696900711
31
0
0
LINE
5
1117
100
AcDbEntity
8
0
100
AcDbLine
10
29.685902062620031
20
-15.118767696900711
30
0
11
29.730934687620028
21
-15.173330309400711
31
0
0
LINE
5
1118
100
AcDbEntity
8
0
100
AcDbLine
10
29.730934687620028
20
-15.173330309400711
30
0
11
29.763493312620032
21
-15.215374371900708
31
0
0
LINE
5
1119
100
AcDbEntity
8
0
100
AcDbLine
10
29.763493312620032
20
-15.215374371900708
30
0
11
29.781758812620041
21
-15.242802321900708
31
0
0
LINE
5
1120
100
AcDbEntity
8
0
100
AcDbLine
10
29.781758812620041
20
-15.242802321900708
30
0
11
29.83272772512003
21
-15.336966171900709
31
0
0
LINE
5
1121
100
AcDbEntity
8
0
100
AcDbLine
10
29.83272772512003
20
-15.336966171900709
30
0
11
29.842985362620027
21
-15.697921409400706
31
0
0
LINE
5
1122
100
AcDbEntity
8
0
100
AcDbLine
10
29.842985362620027
20
-15.697921409400706
30
0
11
29.853243000120031
21
-16.058872934400711
31
0
0
LINE
5
1123
100
AcDbEntity
8
0
100
AcDbLine
10
29.853243000120031
20
-16.058872934400711
30
0
11
29.811982275120023
21
-16.137344046900708
31
0
0
LINE
5
1124
100
AcDbEntity
8
0
100
AcDbLine
10
29.811982275120023
20
-16.137344046900708
30
0
11
29.765791350120029
21
-16.194342059400707
31
0
0
LINE
5
1125
100
AcDbEntity
8
0
100
AcDbLine
10
29.765791350120029
20
-16.194342059400707
30
0
11
29.707445700120019
21
-16.222252634400711
31
0
0
LINE
5
1126
100
AcDbEntity
8
0
100
AcDbLine
10
29.707445700120019
20
-16.222252634400711
30
0
11
29.645343000120029
21
-16.219338321900697
31
0
0
LINE
5
1127
100
AcDbEntity
8
0
100
AcDbLine
10
29.645343000120029
20
-16.219338321900697
30
0
11
29.587877212620022
21
-16.183854246900708
31
0
0
LINE
5
1128
100
AcDbEntity
8
0
100
AcDbLine
10
29.587877212620022
20
-16.183854246900708
30
0
11
29.536882312620037
21
-16.132863059400705
31
0
0
LINE
5
1129
100
AcDbEntity
8
0
100
AcDbLine
10
29.536882312620037
20
-16.132863059400705
30
0
11
29.536607587620018
21
-15.829072896900694
31
0
0
ARC
5
1130
100
AcDbEntity
8
0
100
AcDbCircle
10
25.581985503567005
20
-15.76368362623375
30
0
40
3.95516264955035
210
-0
220
0
230
1
100
AcDbArc
50
-0.94729351472621226
51
5.8507090496752667
0
LINE
5
1131
100
AcDbEntity
8
0
100
AcDbLine
10
29.516545237620026
20
-15.360507134400711
30
0
11
29.49675018762003
21
-15.195724109400706
31
0
0
LINE
5
1132
100
AcDbEntity
8
0
100
AcDbLine
10
29.49675018762003
20
-15.195724109400706
30
0
11
29.135720700120036
21
-15.195724109400706
31
0
0
LINE
5
1133
100
AcDbEntity
8
0
100
AcDbLine
10
29.135720700120036
20
-15.195724109400706
30
0
11
28.774683787620035
21
-15.195724109400706
31
0
0
LINE
5
1134
100
AcDbEntity
8
0
100
AcDbLine
10
28.774683787620035
20
-15.195724109400706
30
0
11
28.791876375120022
21
-15.690069471900712
31
0
0
LINE
5
1135
100
AcDbEntity
8
0
100
AcDbLine
10
28.791876375120022
20
-15.690069471900712
30
0
11
28.809065250120042
21
-16.184422259400712
31
0
0
LINE
5
1136
100
AcDbEntity
8
0
100
AcDbLine
10
28.809065250120042
20
-16.184422259400712
30
0
11
28.874037712620016
21
-16.389756921900712
31
0
0
LINE
5
1137
100
AcDbEntity
8
0
100
AcDbLine
10
28.874037712620016
20
-16.389756921900712
30
0
11
28.939010175120021
21
-16.595084159400706
31
0
0
LINE
5
1138
100
AcDbEntity
8
0
100
AcDbLine
10
28.939010175120021
20
-16.595084159400706
30
0
11
29.049694650120024
21
-16.724397959400701
31
0
0
ARC
5
1139
100
AcDbEntity
8
0
100
AcDbCircle
10
29.705167873281493
20
-16.15548157198765
30
0
40
0.86793490663113526
210
0
220
0
230
1
100
AcDbArc
50
220.95626720486234
51
243.90564738272354
0
LINE
5
1140
100
AcDbEntity
8
0
100
AcDbLine
10
29.323406137620029
20
-16.934948684400716
30
0
11
29.486436862620025
21
-17.016189321900697
31
0
0
LINE
5
1141
100
AcDbEntity
8
0
100
AcDbLine
10
29.486436862620025
20
-17.016189321900697
30
0
11
29.70783551262004
21
-17.013713084400703
31
0
0
LINE
5
1142
100
AcDbEntity
8
0
100
AcDbLine
10
29.70783551262004
20
-17.013713084400703
30
0
11
29.801223450120027
21
-17.010152796900705
31
0
0
LINE
5
1143
100
AcDbEntity
8
0
100
AcDbLine
10
29.801223450120027
20
-17.010152796900705
30
0
11
29.891849287620033
21
-17.002293434400709
31
0
0
LINE
5
1144
100
AcDbEntity
8
0
100
AcDbLine
10
29.891849287620033
20
-17.002293434400709
30
0
11
29.969358862620012
21
-16.991297009400704
31
0
0
LINE
5
1145
100
AcDbEntity
8
0
100
AcDbLine
10
29.969358862620012
20
-16.991297009400704
30
0
11
30.023386875120043
21
-16.9783218219007
31
0
0
LINE
5
1146
100
AcDbEntity
8
0
100
AcDbLine
10
30.023386875120043
20
-16.9783218219007
30
0
11
30.170780550120018
21
-16.906637159400706
31
0
0
LINE
5
1147
100
AcDbEntity
8
0
100
AcDbLine
10
30.170780550120018
20
-16.906637159400706
30
0
11
30.306984750120041
21
-16.801759034400707
31
0
0
LINE
5
1148
100
AcDbEntity
8
0
100
AcDbLine
10
30.306984750120041
20
-16.801759034400707
30
0
11
30.423683475120015
21
-16.671416871900707
31
0
0
LINE
5
1149
100
AcDbEntity
8
0
100
AcDbLine
10
30.423683475120015
20
-16.671416871900707
30
0
11
30.512579287620028
21
-16.523332671900711
31
0
0
LINE
5
1150
100
AcDbEntity
8
0
100
AcDbLine
10
30.512579287620028
20
-16.523332671900711
30
0
11
30.574284750120015
21
-16.391427546900712
31
0
0
LINE
5
1151
100
AcDbEntity
8
0
100
AcDbLine
10
30.574284750120015
20
-16.391427546900712
30
0
11
30.60639787512002
21
-16.047486696900705
31
0
0
LINE
5
1152
100
AcDbEntity
8
0
100
AcDbLine
10
30.60639787512002
20
-16.047486696900705
30
0
11
30.63850728762004
21
-15.703545846900715
31
0
0
LINE
5
1153
100
AcDbEntity
8
0
100
AcDbLine
10
30.63850728762004
20
-15.703545846900715
30
0
11
30.606160275120011
21
-15.330970484400712
31
0
0
LINE
5
1154
100
AcDbEntity
8
0
100
AcDbLine
10
30.606160275120011
20
-15.330970484400712
30
0
11
30.583354387620012
21
-15.109297109400705
31
0
0
LINE
5
1155
100
AcDbEntity
8
0
100
AcDbLine
10
30.583354387620012
20
-15.109297109400705
30
0
11
30.553728637620026
21
-14.924002521900711
31
0
0
LINE
5
1156
100
AcDbEntity
8
0
100
AcDbLine
10
30.553728637620026
20
-14.924002521900711
30
0
11
30.512085525120014
21
-14.764554359400719
31
0
0
LINE
5
1157
100
AcDbEntity
8
0
100
AcDbLine
10
30.512085525120014
20
-14.764554359400719
30
0
11
30.45322012512003
21
-14.620446246900716
31
0
0
LINE
5
1158
100
AcDbEntity
8
0
100
AcDbLine
10
30.45322012512003
20
-14.620446246900716
30
0
11
30.371927512620019
21
-14.481145821900707
31
0
0
LINE
5
1159
100
AcDbEntity
8
0
100
AcDbLine
10
30.371927512620019
20
-14.481145821900707
30
0
11
30.263006475120029
21
-14.336139284400705
31
0
0
LINE
5
1160
100
AcDbEntity
8
0
100
AcDbLine
10
30.263006475120029
20
-14.336139284400705
30
0
11
30.196556437620032
21
-14.258210196900706
31
0
0
LINE
5
1161
100
AcDbEntity
8
0
100
AcDbLine
10
30.196556437620032
20
-14.258210196900706
30
0
11
30.121252087620022
21
-14.174909121900715
31
0
0
LINE
5
1162
100
AcDbEntity
8
0
100
AcDbLine
10
30.121252087620022
20
-14.174909121900715
30
0
11
30.036440025120026
21
-14.084918121900717
31
0
0
LINE
5
1163
100
AcDbEntity
8
0
100
AcDbLine
10
30.036440025120026
20
-14.084918121900717
30
0
11
29.941466850120033
21
-13.986930396900705
31
0
0
LINE
5
1164
100
AcDbEntity
8
0
100
AcDbLine
10
29.941466850120033
20
-13.986930396900705
30
0
11
29.795524762620033
21
-13.833593009400715
31
0
0
LINE
5
1165
100
AcDbEntity
8
0
100
AcDbLine
10
29.795524762620033
20
-13.833593009400715
30
0
11
29.670985237620027
21
-13.694808621900719
31
0
0
LINE
5
1166
100
AcDbEntity
8
0
100
AcDbLine
10
29.670985237620027
20
-13.694808621900719
30
0
11
29.620870200120031
21
-13.635642509400714
31
0
0
LINE
5
1167
100
AcDbEntity
8
0
100
AcDbLine
10
29.620870200120031
20
-13.635642509400714
30
0
11
29.581057350120044
21
-13.585831896900713
31
0
0
LINE
5
1168
100
AcDbEntity
8
0
100
AcDbLine
10
29.581057350120044
20
-13.585831896900713
30
0
11
29.553198750120035
21
-13.547292434400715
31
0
0
LINE
5
1169
100
AcDbEntity
8
0
100
AcDbLine
10
29.553198750120035
20
-13.547292434400715
30
0
11
29.538946462620032
21
-13.521921209400725
31
0
0
LINE
5
1170
100
AcDbEntity
8
0
100
AcDbLine
10
29.538946462620032
20
-13.521921209400725
30
0
11
29.525956425120043
21
-13.466181734400726
31
0
0
LINE
5
1171
100
AcDbEntity
8
0
100
AcDbLine
10
29.525956425120043
20
-13.466181734400726
30
0
11
29.515323825120028
21
-13.37945773440071
31
0
0
LINE
5
1172
100
AcDbEntity
8
0
100
AcDbLine
10
29.515323825120028
20
-13.37945773440071
30
0
11
29.508136425120021
21
-13.273603221900721
31
0
0
LINE
5
1173
100
AcDbEntity
8
0
100
AcDbLine
10
29.508136425120021
20
-13.273603221900721
30
0
11
29.505496837620029
21
-13.160483346900717
31
0
0
LINE
5
1174
100
AcDbEntity
8
0
100
AcDbLine
10
29.505496837620029
20
-13.160483346900717
30
0
11
29.505496837620029
21
-12.887024309400719
31
0
0
LINE
5
1175
100
AcDbEntity
8
0
100
AcDbLine
10
29.505496837620029
20
-12.887024309400719
30
0
11
29.554357050120032
21
-12.817266434400725
31
0
0
LINE
5
1176
100
AcDbEntity
8
0
100
AcDbLine
10
29.554357050120032
20
-12.817266434400725
30
0
11
29.605054950120035
21
-12.768179759400713
31
0
0
LINE
5
1177
100
AcDbEntity
8
0
100
AcDbLine
10
29.605054950120035
20
-12.768179759400713
30
0
11
29.661184237620031
21
-12.750055334400713
31
0
0
LINE
5
1178
100
AcDbEntity
8
0
100
AcDbLine
10
29.661184237620031
20
-12.750055334400713
30
0
11
29.714180175120013
21
-12.763271834400708
31
0
0
LINE
5
1179
100
AcDbEntity
8
0
100
AcDbLine
10
29.714180175120013
20
-12.763271834400708
30
0
11
29.75548916262003
21
-12.808219071900711
31
0
0
LINE
5
1180
100
AcDbEntity
8
0
100
AcDbLine
10
29.75548916262003
20
-12.808219071900711
30
0
11
29.762019450120036
21
-12.826863246900725
31
0
0
LINE
5
1181
100
AcDbEntity
8
0
100
AcDbLine
10
29.762019450120036
20
-12.826863246900725
30
0
11
29.768107950120019
21
-12.856719171900721
31
0
0
LINE
5
1182
100
AcDbEntity
8
0
100
AcDbLine
10
29.768107950120019
20
-12.856719171900721
30
0
11
29.77362472512003
21
-12.896249871900721
31
0
0
LINE
5
1183
100
AcDbEntity
8
0
100
AcDbLine
10
29.77362472512003
20
-12.896249871900721
30
0
11
29.77843983762002
21
-12.943899809400715
31
0
0
LINE
5
1184
100
AcDbEntity
8
0
100
AcDbLine
10
29.77843983762002
20
-12.943899809400715
30
0
11
29.78541933762002
21
-13.057402071900714
31
0
0
LINE
5
1185
100
AcDbEntity
8
0
100
AcDbLine
10
29.78541933762002
20
-13.057402071900714
30
0
11
29.787980962620011
21
-13.18486704690072
31
0
0
LINE
5
1186
100
AcDbEntity
8
0
100
AcDbLine
10
29.787980962620011
20
-13.18486704690072
30
0
11
29.787980962620011
21
-13.500800796900712
31
0
0
LINE
5
1187
100
AcDbEntity
8
0
100
AcDbLine
10
29.787980962620011
20
-13.500800796900712
30
0
11
30.164632650120019
21
-13.500800796900712
31
0
0
LINE
5
1188
100
AcDbEntity
8
0
100
AcDbLine
10
30.541276912620027
20
-13.500800796900716
30
0
11
30.540315375120031
21
-13.241857634401587
31
0
0
LINE
5
1189
100
AcDbEntity
8
0
100
AcDbLine
10
30.164632650120019
20
-13.500800796900712
30
0
11
30.541276912620027
21
-13.500800796900716
31
0
0
LINE
5
1190
100
AcDbEntity
8
0
100
AcDbLine
10
28.463836162620034
20
-15.909786359400711
30
0
11
28.454016600120042
21
-14.897539821900711
31
0
0
LINE
5
1191
100
AcDbEntity
8
0
100
AcDbLine
10
28.454016600120042
20
-14.897539821900711
30
0
11
28.397423250120038
21
-14.771994209400713
31
0
0
LINE
5
1192
100
AcDbEntity
8
0
100
AcDbLine
10
28.397423250120038
20
-14.771994209400713
30
0
11
28.336478850120031
21
-14.661525059400709
31
0
0
LINE
5
1193
100
AcDbEntity
8
0
100
AcDbLine
10
28.336478850120031
20
-14.661525059400709
30
0
11
28.261519762620033
21
-14.566459071900697
31
0
0
LINE
5
1194
100
AcDbEntity
8
0
100
AcDbLine
10
28.261519762620033
20
-14.566459071900697
30
0
11
28.176440400120036
21
-14.490946821900705
31
0
0
LINE
5
1195
100
AcDbEntity
8
0
100
AcDbLine
10
28.176440400120036
20
-14.490946821900705
30
0
11
28.085138887620037
21
-14.439142596900712
31
0
0
LINE
5
1196
100
AcDbEntity
8
0
100
AcDbLine
10
28.085138887620037
20
-14.439142596900712
30
0
11
27.990429300120034
21
-14.399912609400708
31
0
0
LINE
5
1197
100
AcDbEntity
8
0
100
AcDbLine
10
27.990429300120034
20
-14.399912609400708
30
0
11
28.149372562620041
21
-14.329768634400713
31
0
0
LINE
5
1198
100
AcDbEntity
8
0
100
AcDbLine
10
28.149372562620041
20
-14.329768634400713
30
0
11
28.308304687620041
21
-14.259624659400707
31
0
0
LINE
5
1199
100
AcDbEntity
8
0
100
AcDbLine
10
28.308304687620041
20
-14.259624659400707
30
0
11
28.359763650120033
21
-14.160107384400703
31
0
0
LINE
5
1200
100
AcDbEntity
8
0
100
AcDbLine
10
28.359763650120033
20
-14.160107384400703
30
0
11
28.38231708762002
21
-14.097852471900705
31
0
0
LINE
5
1201
100
AcDbEntity
8
0
100
AcDbLine
10
28.38231708762002
20
-14.097852471900705
30
0
11
28.405665000120031
21
-14.001914046900716
31
0
0
LINE
5
1202
100
AcDbEntity
8
0
100
AcDbLine
10
28.405665000120031
20
-14.001914046900716
30
0
11
28.427063850120035
21
-13.885378671900714
31
0
0
LINE
5
1203
100
AcDbEntity
8
0
100
AcDbLine
10
28.427063850120035
20
-13.885378671900714
30
0
11
28.443751537620034
21
-13.761329196900704
31
0
0
LINE
5
1204
100
AcDbEntity
8
0
100
AcDbLine
10
28.443751537620034
20
-13.761329196900704
30
0
11
28.476265612620033
21
-13.462071996900713
31
0
0
LINE
5
1205
100
AcDbEntity
8
0
100
AcDbLine
10
28.476265612620033
20
-13.462071996900713
30
0
11
28.442537550120022
21
-13.096940196900714
31
0
0
LINE
5
1206
100
AcDbEntity
8
0
100
AcDbLine
10
28.442537550120022
20
-13.096940196900714
30
0
11
28.427850900120035
21
-12.948354809400723
31
0
0
LINE
5
1207
100
AcDbEntity
8
0
100
AcDbLine
10
28.427850900120035
20
-12.948354809400723
30
0
11
28.41308257512004
21
-12.825864584400716
31
0
0
LINE
5
1208
100
AcDbEntity
8
0
100
AcDbLine
10
28.41308257512004
20
-12.825864584400716
30
0
11
28.396925775120025
21
-12.724483634400716
31
0
0
LINE
5
1209
100
AcDbEntity
8
0
100
AcDbLine
10
28.396925775120025
20
-12.724483634400716
30
0
11
28.37808483762003
21
-12.639237209400726
31
0
0
LINE
5
1210
100
AcDbEntity
8
0
100
AcDbLine
10
28.37808483762003
20
-12.639237209400726
30
0
11
28.327134487620036
21
-12.49720067190073
31
0
0
LINE
5
1211
100
AcDbEntity
8
0
100
AcDbLine
10
28.327134487620036
20
-12.49720067190073
30
0
11
28.249799400120033
21
-12.359897571900726
31
0
0
LINE
5
1212
100
AcDbEntity
8
0
100
AcDbLine
10
28.249799400120033
20
-12.359897571900726
30
0
11
28.154651737620018
21
-12.209860596900718
31
0
0
LINE
5
1213
100
AcDbEntity
8
0
100
AcDbLine
10
28.154651737620018
20
-12.209860596900718
30
0
11
28.008171337620034
21
-12.14506633440072
31
0
0
LINE
5
1214
100
AcDbEntity
8
0
100
AcDbLine
10
28.008171337620034
20
-12.14506633440072
30
0
11
27.861702075120036
21
-12.080279496900735
31
0
0
LINE
5
1215
100
AcDbEntity
8
0
100
AcDbLine
10
27.861702075120036
20
-12.080279496900735
30
0
11
27.234638550120025
21
-12.063959346900715
31
0
0
LINE
5
1216
100
AcDbEntity
8
0
100
AcDbLine
10
27.234638550120025
20
-12.063959346900715
30
0
11
26.607586162620038
21
-12.047639196900715
31
0
0
LINE
5
1217
100
AcDbEntity
8
0
100
AcDbLine
10
26.607586162620038
20
-12.047639196900715
30
0
11
26.62833161262002
21
-12.687904371900727
31
0
0
LINE
5
1218
100
AcDbEntity
8
0
100
AcDbLine
10
26.62833161262002
20
-12.687904371900727
30
0
11
26.630447737620035
21
-12.762529334400714
31
0
0
LINE
5
1219
100
AcDbEntity
8
0
100
AcDbLine
10
26.630447737620035
20
-12.762529334400714
30
0
11
26.632504462620041
21
-12.853515284400721
31
0
0
LINE
5
1220
100
AcDbEntity
8
0
100
AcDbLine
10
26.632504462620041
20
-12.853515284400721
30
0
11
26.634490650120036
21
-12.959603684400726
31
0
0
LINE
5
1221
100
AcDbEntity
8
0
100
AcDbLine
10
26.634490650120036
20
-12.959603684400726
30
0
11
26.636395162620047
21
-13.079535996900722
31
0
0
LINE
5
1222
100
AcDbEntity
8
0
100
AcDbLine
10
26.636395162620047
20
-13.079535996900722
30
0
11
26.638210575120031
21
-13.212053684400722
31
0
0
LINE
5
1223
100
AcDbEntity
8
0
100
AcDbLine
10
26.638210575120031
20
-13.212053684400722
30
0
11
26.639925750120042
21
-13.35590192190072
31
0
0
LINE
5
1224
100
AcDbEntity
8
0
100
AcDbLine
10
26.639925750120042
20
-13.35590192190072
30
0
11
26.641529550120033
21
-13.509818459400716
31
0
0
LINE
5
1225
100
AcDbEntity
8
0
100
AcDbLine
10
26.641529550120033
20
-13.509818459400716
30
0
11
26.643010837620032
21
-13.672552184400724
31
0
0
LINE
5
1226
100
AcDbEntity
8
0
100
AcDbLine
10
26.643010837620032
20
-13.672552184400724
30
0
11
26.645561325120035
21
-14.019425909400711
31
0
0
LINE
5
1227
100
AcDbEntity
8
0
100
AcDbLine
10
26.645561325120035
20
-14.019425909400711
30
0
11
26.647491825120024
21
-14.386465934400716
31
0
0
LINE
5
1228
100
AcDbEntity
8
0
100
AcDbLine
10
26.647491825120024
20
-14.386465934400716
30
0
11
26.648720662620036
21
-14.763607671900711
31
0
0
LINE
5
1229
100
AcDbEntity
8
0
100
AcDbLine
10
26.648720662620036
20
-14.763607671900711
30
0
11
26.649162450120023
21
-15.140793959400707
31
0
0
LINE
5
1230
100
AcDbEntity
8
0
100
AcDbLine
10
26.649162450120023
20
-15.140793959400707
30
0
11
26.649247837620024
21
-16.953418371900707
31
0
0
LINE
5
1231
100
AcDbEntity
8
0
100
AcDbLine
10
26.649247837620024
20
-16.953418371900707
30
0
11
27.059560762620034
21
-16.953418371900707
31
0
0
LINE
5
1232
100
AcDbEntity
8
0
100
AcDbLine
10
27.059560762620034
20
-16.953418371900707
30
0
11
27.469877400120033
21
-16.953418371900707
31
0
0
LINE
5
1233
100
AcDbEntity
8
0
100
AcDbLine
10
27.469877400120033
20
-16.953418371900707
30
0
11
27.447116062620047
21
-15.834281534400709
31
0
0
LINE
5
1234
100
AcDbEntity
8
0
100
AcDbLine
10
27.447116062620047
20
-15.834281534400709
30
0
11
27.424343587620026
21
-14.715148409400713
31
0
0
LINE
5
1235
100
AcDbEntity
8
0
100
AcDbLine
10
27.424343587620026
20
-14.715148409400713
30
0
11
27.530160975120044
21
-14.736313371900723
31
0
0
LINE
5
1236
100
AcDbEntity
8
0
100
AcDbLine
10
27.530160975120044
20
-14.736313371900723
30
0
11
27.614408737620021
21
-14.760749046900708
31
0
0
LINE
5
1237
100
AcDbEntity
8
0
100
AcDbLine
10
27.614408737620021
20
-14.760749046900708
30
0
11
27.668355075120033
21
-14.789784509400704
31
0
0
LINE
5
1238
100
AcDbEntity
8
0
100
AcDbLine
10
27.668355075120033
20
-14.789784509400704
30
0
11
27.70071693762003
21
-14.822094396900717
31
0
0
LINE
5
1239
100
AcDbEntity
8
0
100
AcDbLine
10
27.70071693762003
20
-14.822094396900717
30
0
11
27.720771862620033
21
-15.518952921900711
31
0
0
ARC
5
1240
100
AcDbEntity
8
0
100
AcDbCircle
10
-27.881832988494367
20
-17.290846372240079
30
0
40
55.630830234938315
210
0
220
-0
230
1
100
AcDbArc
50
0.74355120488619386
51
1.8252323258711074
0
LINE
5
1241
100
AcDbEntity
8
0
100
AcDbLine
10
27.744312825120033
20
-16.568922171900709
30
0
11
27.747802575120033
21
-16.922029184400703
31
0
0
LINE
5
1242
100
AcDbEntity
8
0
100
AcDbLine
10
27.747802575120033
20
-16.922029184400703
30
0
11
28.110725437620037
21
-16.922029184400703
31
0
0
LINE
5
1243
100
AcDbEntity
8
0
100
AcDbLine
10
28.473648300120029
20
-16.922029184400703
30
0
11
28.463836162620034
21
-15.909786359400711
31
0
0
LINE
5
1244
100
AcDbEntity
8
0
100
AcDbLine
10
28.110725437620037
20
-16.922029184400703
30
0
11
28.473648300120029
21
-16.922029184400703
31
0
0
ARC
5
1245
100
AcDbEntity
8
0
100
AcDbCircle
10
30.470961239322566
20
-16.3764625525416
30
0
40
4.104607111651565
210
0
220
0
230
1
100
AcDbArc
50
178.96230210459549
51
185.76313808546979
0
LINE
5
1246
100
AcDbEntity
8
0
100
AcDbLine
10
26.367027300120025
20
-16.302127071900706
30
0
11
26.366752575120035
21
-15.980405534400703
31
0
0
LINE
5
1247
100
AcDbEntity
8
0
100
AcDbLine
10
26.366752575120035
20
-15.980405534400703
30
0
11
26.068579425120042
21
-15.980405534400703
31
0
0
LINE
5
1248
100
AcDbEntity
8
0
100
AcDbLine
10
26.068579425120042
20
-15.980405534400703
30
0
11
25.770395137620035
21
-15.980405534400703
31
0
0
LINE
5
1249
100
AcDbEntity
8
0
100
AcDbLine
10
25.770395137620035
20
-15.980405534400703
30
0
11
25.770395137620035
21
-15.43112630940071
31
0
0
LINE
5
1250
100
AcDbEntity
8
0
100
AcDbLine
10
25.770395137620035
20
-15.43112630940071
30
0
11
25.770395137620035
21
-14.881847084400711
31
0
0
LINE
5
1251
100
AcDbEntity
8
0
100
AcDbLine
10
25.770395137620035
20
-14.881847084400711
30
0
11
26.021493787620045
21
-14.881847084400711
31
0
0
LINE
5
1252
100
AcDbEntity
8
0
100
AcDbLine
10
26.021493787620045
20
-14.881847084400711
30
0
11
26.272592437620041
21
-14.881847084400711
31
0
0
LINE
5
1253
100
AcDbEntity
8
0
100
AcDbLine
10
26.272592437620041
20
-14.881847084400711
30
0
11
26.272592437620045
21
-14.426727996900716
31
0
0
LINE
5
1254
100
AcDbEntity
8
0
100
AcDbLine
10
26.272592437620045
20
-14.426727996900716
30
0
11
26.272592437620045
21
-13.971612621900709
31
0
0
LINE
5
1255
100
AcDbEntity
8
0
100
AcDbLine
10
26.272592437620045
20
-13.971612621900709
30
0
11
26.021493787620045
21
-13.971612621900709
31
0
0
LINE
5
1256
100
AcDbEntity
8
0
100
AcDbLine
10
26.021493787620045
20
-13.971612621900709
30
0
11
25.770395137620035
21
-13.971612621900709
31
0
0
LINE
5
1257
100
AcDbEntity
8
0
100
AcDbLine
10
25.770395137620035
20
-13.971612621900709
30
0
11
25.769964487620037
21
-13.571427396900715
31
0
0
LINE
5
1258
100
AcDbEntity
8
0
100
AcDbLine
10
25.769964487620037
20
-13.571427396900715
30
0
11
25.768308712620026
21
-13.410468246900722
31
0
0
LINE
5
1259
100
AcDbEntity
8
0
100
AcDbLine
10
25.768308712620026
20
-13.410468246900722
30
0
11
25.764106162620042
21
-13.268045609400719
31
0
0
LINE
5
1260
100
AcDbEntity
8
0
100
AcDbLine
10
25.764106162620042
20
-13.268045609400719
30
0
11
25.761251250120047
21
-13.20861590940072
31
0
0
LINE
5
1261
100
AcDbEntity
8
0
100
AcDbLine
10
25.761251250120047
20
-13.20861590940072
30
0
11
25.757995387620038
21
-13.159610909400721
31
0
0
LINE
5
1262
100
AcDbEntity
8
0
100
AcDbLine
10
25.757995387620038
20
-13.159610909400721
30
0
11
25.754423962620034
21
-13.122968534400714
31
0
0
LINE
5
1263
100
AcDbEntity
8
0
100
AcDbLine
10
25.754423962620034
20
-13.122968534400714
30
0
11
25.750614937620053
21
-13.100615571900715
31
0
0
LINE
5
1264
100
AcDbEntity
8
0
100
AcDbLine
10
25.750614937620053
20
-13.100615571900715
30
0
11
25.73169232512004
21
-13.029992684400717
31
0
0
LINE
5
1265
100
AcDbEntity
8
0
100
AcDbLine
10
25.73169232512004
20
-13.029992684400717
30
0
11
26.017833262620044
21
-13.029992684400717
31
0
0
LINE
5
1266
100
AcDbEntity
8
0
100
AcDbLine
10
26.017833262620044
20
-13.029992684400717
30
0
11
26.30398905012003
21
-13.029992684400717
31
0
0
LINE
5
1267
100
AcDbEntity
8
0
100
AcDbLine
10
26.30398905012003
20
-13.029992684400717
30
0
11
26.30398905012003
21
-12.543488121900726
31
0
0
LINE
5
1268
100
AcDbEntity
8
0
100
AcDbLine
10
26.30398905012003
20
-12.543488121900726
30
0
11
26.30398905012003
21
-12.056987271900725
31
0
0
LINE
5
1269
100
AcDbEntity
8
0
100
AcDbLine
10
26.30398905012003
20
-12.056987271900725
30
0
11
25.93518558762003
21
-12.057143196900721
31
0
0
ARC
5
1270
100
AcDbEntity
8
0
100
AcDbCircle
10
25.908703443781114
20
-22.337893366055397
30
0
40
10.280784276723065
210
0
220
-0
230
1
100
AcDbArc
50
89.852412353810792
51
93.615694957117043
0
LINE
5
1271
100
AcDbEntity
8
0
100
AcDbLine
10
25.260357037620054
20
-12.077573084400724
30
0
11
24.954320812620043
21
-12.097839621900723
31
0
0
LINE
5
1272
100
AcDbEntity
8
0
100
AcDbLine
10
24.954320812620043
20
-12.097839621900723
30
0
11
24.954409912620044
21
-13.937112359400711
31
0
0
LINE
5
1273
100
AcDbEntity
8
0
100
AcDbLine
10
24.954409912620044
20
-13.937112359400711
30
0
11
24.954851700120035
21
-14.318597721900709
31
0
0
LINE
5
1274
100
AcDbEntity
8
0
100
AcDbLine
10
24.954851700120035
20
-14.318597721900709
30
0
11
24.956073112620039
21
-14.697707084400701
31
0
0
LINE
5
1275
100
AcDbEntity
8
0
100
AcDbLine
10
24.956073112620039
20
-14.697707084400701
30
0
11
24.95798876262004
21
-15.06448723440071
31
0
0
LINE
5
1276
100
AcDbEntity
8
0
100
AcDbLine
10
24.95798876262004
20
-15.06448723440071
30
0
11
24.960516975120044
21
-15.408977534400709
31
0
0
LINE
5
1277
100
AcDbEntity
8
0
100
AcDbLine
10
24.960516975120044
20
-15.408977534400709
30
0
11
24.961987125120046
21
-15.569751059400712
31
0
0
LINE
5
1278
100
AcDbEntity
8
0
100
AcDbLine
10
24.961987125120046
20
-15.569751059400712
30
0
11
24.963576075120034
21
-15.721221059400705
31
0
0
LINE
5
1279
100
AcDbEntity
8
0
100
AcDbLine
10
24.963576075120034
20
-15.721221059400705
30
0
11
24.965276400120029
21
-15.862140134400713
31
0
0
LINE
5
1280
100
AcDbEntity
8
0
100
AcDbLine
10
24.965276400120029
20
-15.862140134400713
30
0
11
24.96707696262003
21
-15.991264596900713
31
0
0
LINE
5
1281
100
AcDbEntity
8
0
100
AcDbLine
10
24.96707696262003
20
-15.991264596900713
30
0
11
24.968966625120046
21
-16.107343334400696
31
0
0
LINE
5
1282
100
AcDbEntity
8
0
100
AcDbLine
10
24.968966625120046
20
-16.107343334400696
30
0
11
24.970937962620035
21
-16.209143796900708
31
0
0
LINE
5
1283
100
AcDbEntity
8
0
100
AcDbLine
10
24.970937962620035
20
-16.209143796900708
30
0
11
24.972976125120034
21
-16.295411159400707
31
0
0
LINE
5
1284
100
AcDbEntity
8
0
100
AcDbLine
10
24.972976125120034
20
-16.295411159400707
30
0
11
24.975069975120043
21
-16.364901734400711
31
0
0
LINE
5
1285
100
AcDbEntity
8
0
100
AcDbLine
10
24.975069975120043
20
-16.364901734400711
30
0
11
24.995640937620045
21
-16.953418371900707
31
0
0
LINE
5
1286
100
AcDbEntity
8
0
100
AcDbLine
10
24.995640937620045
20
-16.953418371900707
30
0
11
25.701260962620029
21
-16.953418371900707
31
0
0
LINE
5
1287
100
AcDbEntity
8
0
100
AcDbLine
10
26.406895837620013
20
-16.953418371900707
30
0
11
26.387100787620035
21
-16.788631634400705
31
0
0
LINE
5
1288
100
AcDbEntity
8
0
100
AcDbLine
10
25.701260962620029
20
-16.953418371900707
30
0
11
26.406895837620013
21
-16.953418371900707
31
0
0
LINE
5
1289
100
AcDbEntity
8
0
100
AcDbLine
10
24.801618262620035
20
-16.953418371900707
30
0
11
24.785235000120053
21
-16.898484509400703
31
0
0
LINE
5
1290
100
AcDbEntity
8
0
100
AcDbLine
10
24.785235000120053
20
-16.898484509400703
30
0
11
24.78225386262006
21
-16.886225834400701
31
0
0
LINE
5
1291
100
AcDbEntity
8
0
100
AcDbLine
10
24.78225386262006
20
-16.886225834400701
30
0
11
24.776785350120043
21
-16.8612481344007
31
0
0
LINE
5
1292
100
AcDbEntity
8
0
100
AcDbLine
10
24.776785350120043
20
-16.8612481344007
30
0
11
24.768951975120039
21
-16.824227084400697
31
0
0
LINE
5
1293
100
AcDbEntity
8
0
100
AcDbLine
10
24.768951975120039
20
-16.824227084400697
30
0
11
24.758902237620035
21
-16.775853209400694
31
0
0
LINE
5
1294
100
AcDbEntity
8
0
100
AcDbLine
10
24.758902237620035
20
-16.775853209400694
30
0
11
24.746773500120046
21
-16.716809609400709
31
0
0
LINE
5
1295
100
AcDbEntity
8
0
100
AcDbLine
10
24.746773500120046
20
-16.716809609400709
30
0
11
24.73270312512005
21
-16.647790521900706
31
0
0
LINE
5
1296
100
AcDbEntity
8
0
100
AcDbLine
10
24.73270312512005
20
-16.647790521900706
30
0
11
24.716832187620032
21
-16.569471621900707
31
0
0
LINE
5
1297
100
AcDbEntity
8
0
100
AcDbLine
10
24.716832187620032
20
-16.569471621900707
30
0
11
24.699294337620039
21
-16.48255085940071
31
0
0
LINE
5
1298
100
AcDbEntity
8
0
100
AcDbLine
10
24.699294337620039
20
-16.48255085940071
30
0
11
24.659774775120038
21
-16.285625009400704
31
0
0
LINE
5
1299
100
AcDbEntity
8
0
100
AcDbLine
10
24.659774775120038
20
-16.285625009400704
30
0
11
24.61525818762005
21
-16.062511184400719
31
0
0
LINE
5
1300
100
AcDbEntity
8
0
100
AcDbLine
10
24.61525818762005
20
-16.062511184400719
30
0
11
24.566847187620048
21
-15.818692746900709
31
0
0
LINE
5
1301
100
AcDbEntity
8
0
100
AcDbLine
10
24.566847187620048
20
-15.818692746900709
30
0
11
24.515644387620036
21
-15.559664196900709
31
0
0
LINE
5
1302
100
AcDbEntity
8
0
100
AcDbLine
10
24.515644387620036
20
-15.559664196900709
30
0
11
24.262418475120036
21
-14.275766609400712
31
0
0
LINE
5
1303
100
AcDbEntity
8
0
100
AcDbLine
10
24.262418475120036
20
-14.275766609400712
30
0
11
24.482825887620034
21
-13.226268846900719
31
0
0
LINE
5
1304
100
AcDbEntity
8
0
100
AcDbLine
10
24.482825887620034
20
-13.226268846900719
30
0
11
24.527097450120039
21
-13.014544971900712
31
0
0
LINE
5
1305
100
AcDbEntity
8
0
100
AcDbLine
10
24.527097450120039
20
-13.014544971900712
30
0
11
24.568402725120038
21
-12.815280246900711
31
0
0
LINE
5
1306
100
AcDbEntity
8
0
100
AcDbLine
10
24.568402725120038
20
-12.815280246900711
30
0
11
24.605832150120026
21
-12.632963084400714
31
0
0
LINE
5
1307
100
AcDbEntity
8
0
100
AcDbLine
10
24.605832150120026
20
-12.632963084400714
30
0
11
24.638483587620037
21
-12.47207447190072
31
0
0
LINE
5
1308
100
AcDbEntity
8
0
100
AcDbLine
10
24.638483587620037
20
-12.47207447190072
30
0
11
24.665451187620047
21
-12.337106534400714
31
0
0
LINE
5
1309
100
AcDbEntity
8
0
100
AcDbLine
10
24.665451187620047
20
-12.337106534400714
30
0
11
24.685836525120042
21
-12.232543971900721
31
0
0
LINE
5
1310
100
AcDbEntity
8
0
100
AcDbLine
10
24.685836525120042
20
-12.232543971900721
30
0
11
24.693272662620053
21
-12.193065246900726
31
0
0
LINE
5
1311
100
AcDbEntity
8
0
100
AcDbLine
10
24.693272662620053
20
-12.193065246900726
30
0
11
24.698726325120035
21
-12.162867771900723
31
0
0
LINE
5
1312
100
AcDbEntity
8
0
100
AcDbLine
10
24.698726325120035
20
-12.162867771900723
30
0
11
24.702082425120029
21
-12.142515846900723
31
0
0
LINE
5
1313
100
AcDbEntity
8
0
100
AcDbLine
10
24.702082425120029
20
-12.142515846900723
30
0
11
24.703225875120047
21
-12.132570059400729
31
0
0
LINE
5
1314
100
AcDbEntity
8
0
100
AcDbLine
10
24.703225875120047
20
-12.132570059400729
30
0
11
24.703233300120043
21
-12.088369034400728
31
0
0
LINE
5
1315
100
AcDbEntity
8
0
100
AcDbLine
10
24.703233300120043
20
-12.088369034400728
30
0
11
24.345634162620051
21
-12.088369034400728
31
0
0
LINE
5
1316
100
AcDbEntity
8
0
100
AcDbLine
10
24.345634162620051
20
-12.088369034400728
30
0
11
23.988035025120045
21
-12.088369034400714
31
0
0
LINE
5
1317
100
AcDbEntity
8
0
100
AcDbLine
10
23.988035025120045
20
-12.088369034400714
30
0
11
23.973589687620056
21
-12.127602734400721
31
0
0
LINE
5
1318
100
AcDbEntity
8
0
100
AcDbLine
10
23.973589687620056
20
-12.127602734400721
30
0
11
23.967230175120051
21
-12.154013459400712
31
0
0
LINE
5
1319
100
AcDbEntity
8
0
100
AcDbLine
10
23.967230175120051
20
-12.154013459400712
30
0
11
23.954615100120058
21
-12.214460384400718
31
0
0
LINE
5
1320
100
AcDbEntity
8
0
100
AcDbLine
10
23.954615100120058
20
-12.214460384400718
30
0
11
23.936494387620058
21
-12.305067659400715
31
0
0
LINE
5
1321
100
AcDbEntity
8
0
100
AcDbLine
10
23.936494387620058
20
-12.305067659400715
30
0
11
23.913629100120055
21
-12.421948296900716
31
0
0
LINE
5
1322
100
AcDbEntity
8
0
100
AcDbLine
10
23.913629100120055
20
-12.421948296900716
30
0
11
23.886765450120055
21
-12.561215309400712
31
0
0
LINE
5
1323
100
AcDbEntity
8
0
100
AcDbLine
10
23.886765450120055
20
-12.561215309400712
30
0
11
23.856664500120061
21
-12.71899284690071
31
0
0
LINE
5
1324
100
AcDbEntity
8
0
100
AcDbLine
10
23.856664500120061
20
-12.71899284690071
30
0
11
23.824076175120055
21
-12.891390209400706
31
0
0
LINE
5
1325
100
AcDbEntity
8
0
100
AcDbLine
10
23.824076175120055
20
-12.891390209400706
30
0
11
23.789754112620049
21
-13.074524121900721
31
0
0
LINE
5
1326
100
AcDbEntity
8
0
100
AcDbLine
10
23.789754112620049
20
-13.074524121900721
30
0
11
23.620367587620038
21
-13.982211809400713
31
0
0
LINE
5
1327
100
AcDbEntity
8
0
100
AcDbLine
10
23.620367587620038
20
-13.982211809400713
30
0
11
23.600539125120061
21
-13.890594734400707
31
0
0
LINE
5
1328
100
AcDbEntity
8
0
100
AcDbLine
10
23.600539125120061
20
-13.890594734400707
30
0
11
23.596473937620065
21
-13.854735696900711
31
0
0
LINE
5
1329
100
AcDbEntity
8
0
100
AcDbLine
10
23.596473937620065
20
-13.854735696900711
30
0
11
23.592542400120049
21
-13.787535734400713
31
0
0
LINE
5
1330
100
AcDbEntity
8
0
100
AcDbLine
10
23.592542400120049
20
-13.787535734400713
30
0
11
23.588833612620043
21
-13.692878121900712
31
0
0
LINE
5
1331
100
AcDbEntity
8
0
100
AcDbLine
10
23.588833612620043
20
-13.692878121900712
30
0
11
23.585440387620061
21
-13.574649846900716
31
0
0
LINE
5
1332
100
AcDbEntity
8
0
100
AcDbLine
10
23.585440387620061
20
-13.574649846900716
30
0
11
23.582462962620031
21
-13.436730471900709
31
0
0
LINE
5
1333
100
AcDbEntity
8
0
100
AcDbLine
10
23.582462962620031
20
-13.436730471900709
30
0
11
23.580001575120058
21
-13.283006984400718
31
0
0
LINE
5
1334
100
AcDbEntity
8
0
100
AcDbLine
10
23.580001575120058
20
-13.283006984400718
30
0
11
23.578145325120062
21
-13.117358946900701
31
0
0
LINE
5
1335
100
AcDbEntity
8
0
100
AcDbLine
10
23.578145325120062
20
-13.117358946900701
30
0
11
23.576994450120061
21
-12.943677059400713
31
0
0
LINE
5
1336
100
AcDbEntity
8
0
100
AcDbLine
10
23.576994450120061
20
-12.943677059400713
30
0
11
23.573281950120059
21
-12.088369034400714
31
0
0
LINE
5
1337
100
AcDbEntity
8
0
100
AcDbLine
10
23.573281950120059
20
-12.088369034400714
30
0
11
23.180933812620061
21
-12.088369034400714
31
0
0
LINE
5
1338
100
AcDbEntity
8
0
100
AcDbLine
10
23.180933812620061
20
-12.088369034400714
30
0
11
22.78860052512006
21
-12.088369034400714
31
0
0
LINE
5
1339
100
AcDbEntity
8
0
100
AcDbLine
10
22.78860052512006
20
-12.088369034400714
30
0
11
22.789020037620066
21
-14.450272671900702
31
0
0
LINE
5
1340
100
AcDbEntity
8
0
100
AcDbLine
10
22.789020037620066
20
-14.450272671900702
30
0
11
22.789498950120056
21
-14.926170621900702
31
0
0
LINE
5
1341
100
AcDbEntity
8
0
100
AcDbLine
10
22.789498950120056
20
-14.926170621900702
30
0
11
22.790683237620048
21
-15.372925446900695
31
0
0
LINE
5
1342
100
AcDbEntity
8
0
100
AcDbLine
10
22.790683237620048
20
-15.372925446900695
30
0
11
22.791522262620056
21
-15.582258471900703
31
0
0
LINE
5
1343
100
AcDbEntity
8
0
100
AcDbLine
10
22.791522262620056
20
-15.582258471900703
30
0
11
22.792506075120063
21
-15.780565371900702
31
0
0
LINE
5
1344
100
AcDbEntity
8
0
100
AcDbLine
10
22.792506075120063
20
-15.780565371900702
30
0
11
22.793630962620046
21
-15.966598746900708
31
0
0
LINE
5
1345
100
AcDbEntity
8
0
100
AcDbLine
10
22.793630962620046
20
-15.966598746900708
30
0
11
22.794885787620057
21
-16.139107484400697
31
0
0
LINE
5
1346
100
AcDbEntity
8
0
100
AcDbLine
10
22.794885787620057
20
-16.139107484400697
30
0
11
22.796259412620053
21
-16.296851609400701
31
0
0
LINE
5
1347
100
AcDbEntity
8
0
100
AcDbLine
10
22.796259412620053
20
-16.296851609400701
30
0
11
22.797744412620048
21
-16.438580009400688
31
0
0
LINE
5
1348
100
AcDbEntity
8
0
100
AcDbLine
10
22.797744412620048
20
-16.438580009400688
30
0
11
22.799325937620061
21
-16.563048996900697
31
0
0
LINE
5
1349
100
AcDbEntity
8
0
100
AcDbLine
10
22.799325937620061
20
-16.563048996900697
30
0
11
22.800996562620071
21
-16.669003746900707
31
0
0
LINE
5
1350
100
AcDbEntity
8
0
100
AcDbLine
10
22.800996562620071
20
-16.669003746900707
30
0
11
22.802748862620057
21
-16.755204284400701
31
0
0
LINE
5
1351
100
AcDbEntity
8
0
100
AcDbLine
10
22.802748862620057
20
-16.755204284400701
30
0
11
22.804567987620064
21
-16.820399496900702
31
0
0
LINE
5
1352
100
AcDbEntity
8
0
100
AcDbLine
10
22.804567987620064
20
-16.820399496900702
30
0
11
22.806450225120074
21
-16.863345696900694
31
0
0
LINE
5
1353
100
AcDbEntity
8
0
100
AcDbLine
10
22.806450225120074
20
-16.863345696900694
30
0
11
22.808380725120049
21
-16.882795484400702
31
0
0
LINE
5
1354
100
AcDbEntity
8
0
100
AcDbLine
10
22.808380725120049
20
-16.882795484400702
30
0
11
22.827303337620044
21
-16.953418371900696
31
0
0
LINE
5
1355
100
AcDbEntity
8
0
100
AcDbLine
10
22.827303337620044
20
-16.953418371900696
30
0
11
23.215560300120064
21
-16.953418371900696
31
0
0
LINE
5
1356
100
AcDbEntity
8
0
100
AcDbLine
10
23.215560300120064
20
-16.953418371900696
30
0
11
23.603824687620065
21
-16.953418371900696
31
0
0
LINE
5
1357
100
AcDbEntity
8
0
100
AcDbLine
10
23.603824687620065
20
-16.953418371900696
30
0
11
23.612096137620064
21
-15.909786359400703
31
0
0
LINE
5
1358
100
AcDbEntity
8
0
100
AcDbLine
10
23.612096137620064
20
-15.909786359400703
30
0
11
23.620367587620038
21
-14.8661543469007
31
0
0
LINE
5
1359
100
AcDbEntity
8
0
100
AcDbLine
10
23.620367587620038
20
-14.8661543469007
30
0
11
23.792995125120054
21
-15.909571034400699
31
0
0
LINE
5
1360
100
AcDbEntity
8
0
100
AcDbLine
10
23.792995125120054
20
-15.909571034400699
30
0
11
23.965626375120056
21
-16.952991434400701
31
0
0
LINE
5
1361
100
AcDbEntity
8
0
100
AcDbLine
10
24.383624175120033
20
-16.953203046900711
30
0
11
24.801618262620035
21
-16.953418371900707
31
0
0
LINE
5
1362
100
AcDbEntity
8
0
100
AcDbLine
10
23.965626375120056
20
-16.952991434400701
30
0
11
24.383624175120033
21
-16.953203046900711
31
0
0
LINE
5
1363
100
AcDbEntity
8
0
100
AcDbLine
10
21.658649175120065
20
-15.038785596900698
30
0
11
21.658649175120065
21
-15.570894509400697
31
0
0
LINE
5
1364
100
AcDbEntity
8
0
100
AcDbLine
10
21.658649175120065
20
-15.570894509400697
30
0
11
21.658649175120065
21
-16.103003421900695
31
0
0
LINE
5
1365
100
AcDbEntity
8
0
100
AcDbLine
10
21.658649175120065
20
-16.103003421900695
30
0
11
21.622225837620061
21
-16.182944684400702
31
0
0
LINE
5
1366
100
AcDbEntity
8
0
100
AcDbLine
10
21.622225837620061
20
-16.182944684400702
30
0
11
21.585798787620057
21
-16.262893371900702
31
0
0
LINE
5
1367
100
AcDbEntity
8
0
100
AcDbLine
10
21.585798787620057
20
-16.262893371900702
30
0
11
21.500485537620058
21
-16.262893371900702
31
0
0
LINE
5
1368
100
AcDbEntity
8
0
100
AcDbLine
10
21.500485537620058
20
-16.262893371900702
30
0
11
21.415164862620063
21
-16.262893371900702
31
0
0
LINE
5
1369
100
AcDbEntity
8
0
100
AcDbLine
10
21.415164862620063
20
-16.262893371900702
30
0
11
21.382045650120062
21
-16.176577746900698
31
0
0
LINE
5
1370
100
AcDbEntity
8
0
100
AcDbLine
10
21.382045650120062
20
-16.176577746900698
30
0
11
21.348930150120047
21
-16.090262121900707
31
0
0
LINE
5
1371
100
AcDbEntity
8
0
100
AcDbLine
10
21.348930150120047
20
-16.090262121900707
30
0
11
21.327947100120056
21
-14.692312821900696
31
0
0
LINE
5
1372
100
AcDbEntity
8
0
100
AcDbLine
10
21.327947100120056
20
-14.692312821900696
30
0
11
21.324201187620069
21
-14.407159409400709
31
0
0
LINE
5
1373
100
AcDbEntity
8
0
100
AcDbLine
10
21.324201187620069
20
-14.407159409400709
30
0
11
21.321598725120062
21
-14.132749971900706
31
0
0
LINE
5
1374
100
AcDbEntity
8
0
100
AcDbLine
10
21.321598725120062
20
-14.132749971900706
30
0
11
21.320139712620048
21
-13.875696471900703
31
0
0
LINE
5
1375
100
AcDbEntity
8
0
100
AcDbLine
10
21.320139712620048
20
-13.875696471900703
30
0
11
21.319816725120063
21
-13.642603446900702
31
0
0
LINE
5
1376
100
AcDbEntity
8
0
100
AcDbLine
10
21.319816725120063
20
-13.642603446900702
30
0
11
21.320076600120068
21
-13.537105334400712
31
0
0
LINE
5
1377
100
AcDbEntity
8
0
100
AcDbLine
10
21.320076600120068
20
-13.537105334400712
30
0
11
21.320618625120066
21
-13.440071721900711
31
0
0
LINE
5
1378
100
AcDbEntity
8
0
100
AcDbLine
10
21.320618625120066
20
-13.440071721900711
30
0
11
21.32144280012006
21
-13.352330496900716
31
0
0
LINE
5
1379
100
AcDbEntity
8
0
100
AcDbLine
10
21.32144280012006
20
-13.352330496900716
30
0
11
21.32254541262007
21
-13.27470954690072
31
0
0
LINE
5
1380
100
AcDbEntity
8
0
100
AcDbLine
10
21.32254541262007
20
-13.27470954690072
30
0
11
21.323922750120062
21
-13.208029334400704
31
0
0
LINE
5
1381
100
AcDbEntity
8
0
100
AcDbLine
10
21.323922750120062
20
-13.208029334400704
30
0
11
21.325578525120047
21
-13.153121459400705
31
0
0
LINE
5
1382
100
AcDbEntity
8
0
100
AcDbLine
10
21.325578525120047
20
-13.153121459400705
30
0
11
21.327512737620062
21
-13.110806384400709
31
0
0
LINE
5
1383
100
AcDbEntity
8
0
100
AcDbLine
10
21.327512737620062
20
-13.110806384400709
30
0
11
21.329721675120062
21
-13.081911996900708
31
0
0
LINE
5
1384
100
AcDbEntity
8
0
100
AcDbLine
10
21.329721675120062
20
-13.081911996900708
30
0
11
21.352475587620052
21
-12.869456759400704
31
0
0
LINE
5
1385
100
AcDbEntity
8
0
100
AcDbLine
10
21.352475587620052
20
-12.869456759400704
30
0
11
21.422675250120065
21
-12.823466309400713
31
0
0
LINE
5
1386
100
AcDbEntity
8
0
100
AcDbLine
10
21.422675250120065
20
-12.823466309400713
30
0
11
21.481043175120057
21
-12.797515934400714
31
0
0
LINE
5
1387
100
AcDbEntity
8
0
100
AcDbLine
10
21.481043175120057
20
-12.797515934400714
30
0
11
21.53507861262004
21
-12.796803134400694
31
0
0
LINE
5
1388
100
AcDbEntity
8
0
100
AcDbLine
10
21.53507861262004
20
-12.796803134400694
30
0
11
21.581039362620061
21
-12.820462896900708
31
0
0
LINE
5
1389
100
AcDbEntity
8
0
100
AcDbLine
10
21.581039362620061
20
-12.820462896900708
30
0
11
21.615179512620063
21
-12.867633921900714
31
0
0
LINE
5
1390
100
AcDbEntity
8
0
100
AcDbLine
10
21.615179512620063
20
-12.867633921900714
30
0
11
21.620287912620061
21
-12.891152609400711
31
0
0
LINE
5
1391
100
AcDbEntity
8
0
100
AcDbLine
10
21.620287912620061
20
-12.891152609400711
30
0
11
21.625541100120067
21
-12.938171421900709
31
0
0
LINE
5
1392
100
AcDbEntity
8
0
100
AcDbLine
10
21.625541100120067
20
-12.938171421900709
30
0
11
21.630794287620063
21
-13.00586885940071
31
0
0
LINE
5
1393
100
AcDbEntity
8
0
100
AcDbLine
10
21.630794287620063
20
-13.00586885940071
30
0
11
21.635895262620053
21
-13.091419709400711
31
0
0
LINE
5
1394
100
AcDbEntity
8
0
100
AcDbLine
10
21.635895262620053
20
-13.091419709400711
30
0
11
21.640695525120055
21
-13.192006184400713
31
0
0
LINE
5
1395
100
AcDbEntity
8
0
100
AcDbLine
10
21.640695525120055
20
-13.192006184400713
30
0
11
21.645042862620066
21
-13.304799359400707
31
0
0
LINE
5
1396
100
AcDbEntity
8
0
100
AcDbLine
10
21.645042862620066
20
-13.304799359400707
30
0
11
21.64878877512006
21
-13.426981446900699
31
0
0
LINE
5
1397
100
AcDbEntity
8
0
100
AcDbLine
10
21.64878877512006
20
-13.426981446900699
30
0
11
21.651784762620061
21
-13.555730946900702
31
0
0
LINE
5
1398
100
AcDbEntity
8
0
100
AcDbLine
10
21.651784762620061
20
-13.555730946900702
30
0
11
21.664236487620055
21
-14.191329509400695
31
0
0
LINE
5
1399
100
AcDbEntity
8
0
100
AcDbLine
10
21.664236487620055
20
-14.191329509400695
30
0
11
22.053781687620067
21
-14.191329509400695
31
0
0
LINE
5
1400
100
AcDbEntity
8
0
100
AcDbLine
10
22.053781687620067
20
-14.191329509400695
30
0
11
22.443330600120063
21
-14.191329509400695
31
0
0
LINE
5
1401
100
AcDbEntity
8
0
100
AcDbLine
10
22.443330600120063
20
-14.191329509400695
30
0
11
22.443330600120063
21
-13.691396834400704
31
0
0
LINE
5
1402
100
AcDbEntity
8
0
100
AcDbLine
10
22.443330600120063
20
-13.691396834400704
30
0
11
22.440754125120066
21
-13.477913234400711
31
0
0
LINE
5
1403
100
AcDbEntity
8
0
100
AcDbLine
10
22.440754125120066
20
-13.477913234400711
30
0
11
22.433726362620057
21
-13.266204209400705
31
0
0
LINE
5
1404
100
AcDbEntity
8
0
100
AcDbLine
10
22.433726362620057
20
-13.266204209400705
30
0
11
22.42888155012006
21
-13.168658271900702
31
0
0
LINE
5
1405
100
AcDbEntity
8
0
100
AcDbLine
10
22.42888155012006
20
-13.168658271900702
30
0
11
22.423327650120051
21
-13.08072770940071
31
0
0
LINE
5
1406
100
AcDbEntity
8
0
100
AcDbLine
10
22.423327650120051
20
-13.08072770940071
30
0
11
22.417202025120059
21
-13.005471621900714
31
0
0
LINE
5
1407
100
AcDbEntity
8
0
100
AcDbLine
10
22.417202025120059
20
-13.005471621900714
30
0
11
22.410630900120054
21
-12.945949109400704
31
0
0
LINE
5
1408
100
AcDbEntity
8
0
100
AcDbLine
10
22.410630900120054
20
-12.945949109400704
30
0
11
22.37792377512006
21
-12.700426634400708
31
0
0
LINE
5
1409
100
AcDbEntity
8
0
100
AcDbLine
10
22.37792377512006
20
-12.700426634400708
30
0
11
22.283763637620062
21
-12.505572359400725
31
0
0
LINE
5
1410
100
AcDbEntity
8
0
100
AcDbLine
10
22.283763637620062
20
-12.505572359400725
30
0
11
22.189603500120064
21
-12.310718084400719
31
0
0
LINE
5
1411
100
AcDbEntity
8
0
100
AcDbLine
10
22.189603500120064
20
-12.310718084400719
30
0
11
22.061711587620056
21
-12.201247596900711
31
0
0
ARC
5
1412
100
AcDbEntity
8
0
100
AcDbCircle
10
21.487138923856108
20
-12.870072006864159
30
0
40
0.8817368299599132
210
0
220
-0
230
1
100
AcDbArc
50
49.334833831266778
51
127.23111612546748
0
LINE
5
1413
100
AcDbEntity
8
0
100
AcDbLine
10
20.95366027512004
20
-12.168031859400712
30
0
11
20.853445050120047
21
-12.264634821900714
31
0
0
LINE
5
1414
100
AcDbEntity
8
0
100
AcDbLine
10
20.853445050120047
20
-12.264634821900714
30
0
11
20.757213337620048
21
-12.395025246900717
31
0
0
LINE
5
1415
100
AcDbEntity
8
0
100
AcDbLine
10
20.757213337620048
20
-12.395025246900717
30
0
11
20.671536262620055
21
-12.548941784400718
31
0
0
LINE
5
1416
100
AcDbEntity
8
0
100
AcDbLine
10
20.671536262620055
20
-12.548941784400718
30
0
11
20.602973812620064
21
-12.71611937190071
31
0
0
LINE
5
1417
100
AcDbEntity
8
0
100
AcDbLine
10
20.602973812620064
20
-12.71611937190071
30
0
11
20.544401700120062
21
-12.888746909400711
31
0
0
LINE
5
1418
100
AcDbEntity
8
0
100
AcDbLine
10
20.544401700120062
20
-12.888746909400711
30
0
11
20.544401700120062
21
-14.411038971900698
31
0
0
LINE
5
1419
100
AcDbEntity
8
0
100
AcDbLine
10
20.544401700120062
20
-14.411038971900698
30
0
11
20.544401700120062
21
-15.933323609400706
31
0
0
LINE
5
1420
100
AcDbEntity
8
0
100
AcDbLine
10
20.544401700120062
20
-15.933323609400706
30
0
11
20.584860525120053
21
-16.166992071900694
31
0
0
LINE
5
1421
100
AcDbEntity
8
0
100
AcDbLine
10
20.584860525120053
20
-16.166992071900694
30
0
11
20.605153050120055
21
-16.26806488440069
31
0
0
LINE
5
1422
100
AcDbEntity
8
0
100
AcDbLine
10
20.605153050120055
20
-16.26806488440069
30
0
11
20.630483437620075
21
-16.370533596900692
31
0
0
LINE
5
1423
100
AcDbEntity
8
0
100
AcDbLine
10
20.630483437620075
20
-16.370533596900692
30
0
11
20.657621812620061
21
-16.462432821900688
31
0
0
LINE
5
1424
100
AcDbEntity
8
0
100
AcDbLine
10
20.657621812620061
20
-16.462432821900688
30
0
11
20.683338300120067
21
-16.531786034400696
31
0
0
LINE
5
1425
100
AcDbEntity
8
0
100
AcDbLine
10
20.683338300120067
20
-16.531786034400696
30
0
11
20.759945737620061
21
-16.666579484400707
31
0
0
LINE
5
1426
100
AcDbEntity
8
0
100
AcDbLine
10
20.759945737620061
20
-16.666579484400707
30
0
11
20.863595025120052
21
-16.795013421900695
31
0
0
LINE
5
1427
100
AcDbEntity
8
0
100
AcDbLine
10
20.863595025120052
20
-16.795013421900695
30
0
11
20.982595500120055
21
-16.904587859400703
31
0
0
LINE
5
1428
100
AcDbEntity
8
0
100
AcDbLine
10
20.982595500120055
20
-16.904587859400703
30
0
11
21.105256500120056
21
-16.982810234400702
31
0
0
LINE
5
1429
100
AcDbEntity
8
0
100
AcDbLine
10
21.105256500120056
20
-16.982810234400702
30
0
11
21.241085737620047
21
-17.029097684400707
31
0
0
LINE
5
1430
100
AcDbEntity
8
0
100
AcDbLine
10
21.241085737620047
20
-17.029097684400707
30
0
11
21.406592700120058
21
-17.058270509400696
31
0
0
LINE
5
1431
100
AcDbEntity
8
0
100
AcDbLine
10
21.406592700120058
20
-17.058270509400696
30
0
11
21.491026087620043
21
-17.065361384400695
31
0
0
LINE
5
1432
100
AcDbEntity
8
0
100
AcDbLine
10
21.491026087620043
20
-17.065361384400695
30
0
11
21.571546500120064
21
-17.066872371900697
31
0
0
LINE
5
1433
100
AcDbEntity
8
0
100
AcDbLine
10
21.571546500120064
20
-17.066872371900697
30
0
11
21.644374612620069
21
-17.062380246900695
31
0
0
LINE
5
1434
100
AcDbEntity
8
0
100
AcDbLine
10
21.644374612620069
20
-17.062380246900695
30
0
11
21.705731100120069
21
-17.051450646900697
31
0
0
LINE
5
1435
100
AcDbEntity
8
0
100
AcDbLine
10
21.705731100120069
20
-17.051450646900697
30
0
11
21.823142625120056
21
-17.0111625969007
31
0
0
LINE
5
1436
100
AcDbEntity
8
0
100
AcDbLine
10
21.823142625120056
20
-17.0111625969007
30
0
11
21.929969812620062
21
-16.953006284400701
31
0
0
LINE
5
1437
100
AcDbEntity
8
0
100
AcDbLine
10
21.929969812620062
20
-16.953006284400701
30
0
11
22.033088212620061
21
-16.872426471900695
31
0
0
LINE
5
1438
100
AcDbEntity
8
0
100
AcDbLine
10
22.033088212620061
20
-16.872426471900695
30
0
11
22.139384512620065
21
-16.764879059400702
31
0
0
LINE
5
1439
100
AcDbEntity
8
0
100
AcDbLine
10
22.139384512620065
20
-16.764879059400702
30
0
11
22.283024850120064
21
-16.605115334400693
31
0
0
LINE
5
1440
100
AcDbEntity
8
0
100
AcDbLine
10
22.283024850120064
20
-16.605115334400693
30
0
11
22.349055375120066
21
-16.428626796900701
31
0
0
LINE
5
1441
100
AcDbEntity
8
0
100
AcDbLine
10
22.349055375120066
20
-16.428626796900701
30
0
11
22.415097037620058
21
-16.252127121900706
31
0
0
LINE
5
1442
100
AcDbEntity
8
0
100
AcDbLine
10
22.415097037620058
20
-16.252127121900706
30
0
11
22.443987712620054
21
-15.85732502190071
31
0
0
ARC
5
1443
100
AcDbEntity
8
0
100
AcDbCircle
10
13.637402639762337
20
-15.120400431994998
30
0
40
8.8373637752832188
210
-0
220
0
230
1
100
AcDbArc
50
355.21670083065806
51
359.1555115002883
0
LINE
5
1444
100
AcDbEntity
8
0
100
AcDbLine
10
22.473806512620065
20
-15.25065054690069
30
0
11
22.474723500120071
21
-15.038785596900698
31
0
0
LINE
5
1445
100
AcDbEntity
8
0
100
AcDbLine
10
22.066686337620052
20
-15.038785596900698
30
0
11
21.658649175120065
21
-15.038785596900698
31
0
0
LINE
5
1446
100
AcDbEntity
8
0
100
AcDbLine
10
22.474723500120071
20
-15.038785596900698
30
0
11
22.066686337620052
21
-15.038785596900698
31
0
0
LINE
5
1447
100
AcDbEntity
8
0
100
AcDbLine
10
18.143260650120062
20
-16.9848001344007
30
0
11
18.143260650120062
21
-14.552277321900695
31
0
0
LINE
5
1448
100
AcDbEntity
8
0
100
AcDbLine
10
18.143260650120062
20
-14.552277321900695
30
0
11
18.143260650120062
21
-12.119758221900717
31
0
0
LINE
5
1449
100
AcDbEntity
8
0
100
AcDbLine
10
18.143260650120062
20
-12.119758221900717
30
0
11
17.735223487620072
21
-12.119758221900717
31
0
0
LINE
5
1450
100
AcDbEntity
8
0
100
AcDbLine
10
17.735223487620072
20
-12.119758221900717
30
0
11
17.32718632512006
21
-12.119758221900717
31
0
0
LINE
5
1451
100
AcDbEntity
8
0
100
AcDbLine
10
17.32718632512006
20
-12.119758221900717
30
0
11
17.32718632512006
21
-12.998603496900712
31
0
0
LINE
5
1452
100
AcDbEntity
8
0
100
AcDbLine
10
17.32718632512006
20
-12.998603496900712
30
0
11
17.32718632512006
21
-13.877452484400711
31
0
0
LINE
5
1453
100
AcDbEntity
8
0
100
AcDbLine
10
17.32718632512006
20
-13.877452484400711
30
0
11
17.185940550120069
21
-13.877452484400711
31
0
0
LINE
5
1454
100
AcDbEntity
8
0
100
AcDbLine
10
17.185940550120069
20
-13.877452484400711
30
0
11
17.044705912620074
21
-13.877452484400711
31
0
0
LINE
5
1455
100
AcDbEntity
8
0
100
AcDbLine
10
17.044705912620074
20
-13.877452484400711
30
0
11
17.044705912620074
21
-12.998603496900712
31
0
0
LINE
5
1456
100
AcDbEntity
8
0
100
AcDbLine
10
17.044705912620074
20
-12.998603496900712
30
0
11
17.044705912620078
21
-12.119758221900716
31
0
0
LINE
5
1457
100
AcDbEntity
8
0
100
AcDbLine
10
17.044705912620078
20
-12.119758221900716
30
0
11
16.652361487620073
21
-12.119758221900716
31
0
0
LINE
5
1458
100
AcDbEntity
8
0
100
AcDbLine
10
16.652361487620073
20
-12.119758221900716
30
0
11
16.260013350120076
21
-12.119758221900716
31
0
0
LINE
5
1459
100
AcDbEntity
8
0
100
AcDbLine
10
16.260013350120076
20
-12.119758221900716
30
0
11
16.260013350120076
21
-14.552277321900695
31
0
0
LINE
5
1460
100
AcDbEntity
8
0
100
AcDbLine
10
16.260013350120076
20
-14.552277321900695
30
0
11
16.260013350120076
21
-16.9848001344007
31
0
0
LINE
5
1461
100
AcDbEntity
8
0
100
AcDbLine
10
16.260013350120076
20
-16.9848001344007
30
0
11
16.668061650120066
21
-16.9848001344007
31
0
0
LINE
5
1462
100
AcDbEntity
8
0
100
AcDbLine
10
16.668061650120066
20
-16.9848001344007
30
0
11
17.076087675120071
21
-16.9848001344007
31
0
0
LINE
5
1463
100
AcDbEntity
8
0
100
AcDbLine
10
17.076087675120071
20
-16.9848001344007
30
0
11
17.076087675120071
21
-15.964712796900695
31
0
0
LINE
5
1464
100
AcDbEntity
8
0
100
AcDbLine
10
17.076087675120071
20
-15.964712796900695
30
0
11
17.076087675120071
21
-14.944625459400701
31
0
0
LINE
5
1465
100
AcDbEntity
8
0
100
AcDbLine
10
17.076087675120071
20
-14.944625459400701
30
0
11
17.197271100120069
21
-14.944625459400701
31
0
0
LINE
5
1466
100
AcDbEntity
8
0
100
AcDbLine
10
17.197271100120069
20
-14.944625459400701
30
0
11
17.318450812620078
21
-14.944625459400701
31
0
0
LINE
5
1467
100
AcDbEntity
8
0
100
AcDbLine
10
17.318450812620078
20
-14.944625459400701
30
0
11
17.338234725120078
21
-15.109408484400703
31
0
0
LINE
5
1468
100
AcDbEntity
8
0
100
AcDbLine
10
17.338234725120078
20
-15.109408484400703
30
0
11
17.34222195012007
21
-15.159965309400709
31
0
0
LINE
5
1469
100
AcDbEntity
8
0
100
AcDbLine
10
17.34222195012007
20
-15.159965309400709
30
0
11
17.345945587620061
21
-15.240879246900707
31
0
0
LINE
5
1470
100
AcDbEntity
8
0
100
AcDbLine
10
17.345945587620061
20
-15.240879246900707
30
0
11
17.349331387620069
21
-15.347962596900695
31
0
0
LINE
5
1471
100
AcDbEntity
8
0
100
AcDbLine
10
17.349331387620069
20
-15.347962596900695
30
0
11
17.352297675120077
21
-15.477031371900702
31
0
0
LINE
5
1472
100
AcDbEntity
8
0
100
AcDbLine
10
17.352297675120077
20
-15.477031371900702
30
0
11
17.354762775120065
21
-15.623905296900706
31
0
0
LINE
5
1473
100
AcDbEntity
8
0
100
AcDbLine
10
17.354762775120065
20
-15.623905296900706
30
0
11
17.356637587620064
21
-15.784396671900705
31
0
0
LINE
5
1474
100
AcDbEntity
8
0
100
AcDbLine
10
17.356637587620064
20
-15.784396671900705
30
0
11
17.357847862620069
21
-15.9543215094007
31
0
0
LINE
5
1475
100
AcDbEntity
8
0
100
AcDbLine
10
17.357847862620069
20
-15.9543215094007
30
0
11
17.358304500120077
21
-16.129495821900694
31
0
0
LINE
5
1476
100
AcDbEntity
8
0
100
AcDbLine
10
17.358304500120077
20
-16.129495821900694
30
0
11
17.358582937620074
21
-16.9848001344007
31
0
0
LINE
5
1477
100
AcDbEntity
8
0
100
AcDbLine
10
17.750916225120072
20
-16.9848001344007
30
0
11
18.143260650120062
21
-16.9848001344007
31
0
0
LINE
5
1478
100
AcDbEntity
8
0
100
AcDbLine
10
17.358582937620074
20
-16.9848001344007
30
0
11
17.750916225120072
21
-16.9848001344007
31
0
0
LINE
5
1479
100
AcDbEntity
8
0
100
AcDbLine
10
20.381708812620065
20
-16.899360659400696
30
0
11
20.378181937620067
21
-16.868517209400697
31
0
0
LINE
5
1480
100
AcDbEntity
8
0
100
AcDbLine
10
20.378181937620067
20
-16.868517209400697
30
0
11
20.372290200120062
21
-16.813898909400706
31
0
0
LINE
5
1481
100
AcDbEntity
8
0
100
AcDbLine
10
20.372290200120062
20
-16.813898909400706
30
0
11
20.364189525120061
21
-16.737124409400707
31
0
0
LINE
5
1482
100
AcDbEntity
8
0
100
AcDbLine
10
20.364189525120061
20
-16.737124409400707
30
0
11
20.35404697512007
21
-16.639804934400694
31
0
0
LINE
5
1483
100
AcDbEntity
8
0
100
AcDbLine
10
20.35404697512007
20
-16.639804934400694
30
0
11
20.342022187620064
21
-16.523559134400699
31
0
0
LINE
5
1484
100
AcDbEntity
8
0
100
AcDbLine
10
20.342022187620064
20
-16.523559134400699
30
0
11
20.32828222512007
21
-16.389994521900697
31
0
0
LINE
5
1485
100
AcDbEntity
8
0
100
AcDbLine
10
20.32828222512007
20
-16.389994521900697
30
0
11
20.312986725120062
21
-16.240729746900694
31
0
0
LINE
5
1486
100
AcDbEntity
8
0
100
AcDbLine
10
20.312986725120062
20
-16.240729746900694
30
0
11
20.29629903762007
21
-16.077376034400697
31
0
0
LINE
5
1487
100
AcDbEntity
8
0
100
AcDbLine
10
20.29629903762007
20
-16.077376034400697
30
0
11
20.278378800120063
21
-15.901552034400702
31
0
0
LINE
5
1488
100
AcDbEntity
8
0
100
AcDbLine
10
20.278378800120063
20
-15.901552034400702
30
0
11
20.259393075120062
21
-15.714872684400699
31
0
0
LINE
5
1489
100
AcDbEntity
8
0
100
AcDbLine
10
20.259393075120062
20
-15.714872684400699
30
0
11
20.239505212620067
21
-15.518945496900702
31
0
0
LINE
5
1490
100
AcDbEntity
8
0
100
AcDbLine
10
20.239505212620067
20
-15.518945496900702
30
0
11
20.218871137620059
21
-15.315389121900713
31
0
0
LINE
5
1491
100
AcDbEntity
8
0
100
AcDbLine
10
20.218871137620059
20
-15.315389121900713
30
0
11
20.17603631262007
21
-14.89184855940071
31
0
0
LINE
5
1492
100
AcDbEntity
8
0
100
AcDbLine
10
20.17603631262007
20
-14.89184855940071
30
0
11
20.132180550120072
21
-14.457159359400702
31
0
0
LINE
5
1493
100
AcDbEntity
8
0
100
AcDbLine
10
20.132180550120072
20
-14.457159359400702
30
0
11
20.08861436262006
21
-14.024233596900697
31
0
0
LINE
5
1494
100
AcDbEntity
8
0
100
AcDbLine
10
20.08861436262006
20
-14.024233596900697
30
0
11
20.046637125120064
21
-13.605994484400714
31
0
0
LINE
5
1495
100
AcDbEntity
8
0
100
AcDbLine
10
20.046637125120064
20
-13.605994484400714
30
0
11
20.026649025120058
21
-13.406414196900705
31
0
0
LINE
5
1496
100
AcDbEntity
8
0
100
AcDbLine
10
20.026649025120058
20
-13.406414196900705
30
0
11
20.007544500120069
21
-13.215346671900715
31
0
0
LINE
5
1497
100
AcDbEntity
8
0
100
AcDbLine
10
20.007544500120069
20
-13.215346671900715
30
0
11
19.989486900120053
21
-13.034406846900715
31
0
0
LINE
5
1498
100
AcDbEntity
8
0
100
AcDbLine
10
19.989486900120053
20
-13.034406846900715
30
0
11
19.97264328762007
21
-12.865209659400712
31
0
0
LINE
5
1499
100
AcDbEntity
8
0
100
AcDbLine
10
19.97264328762007
20
-12.865209659400712
30
0
11
19.957169587620058
21
-12.709370046900709
31
0
0
LINE
5
1500
100
AcDbEntity
8
0
100
AcDbLine
10
19.957169587620058
20
-12.709370046900709
30
0
11
19.943232862620064
21
-12.568495521900713
31
0
0
LINE
5
1501
100
AcDbEntity
8
0
100
AcDbLine
10
19.943232862620064
20
-12.568495521900713
30
0
11
19.930992750120069
21
-12.44420844690071
31
0
0
LINE
5
1502
100
AcDbEntity
8
0
100
AcDbLine
10
19.930992750120069
20
-12.44420844690071
30
0
11
19.920612600120069
21
-12.338120046900723
31
0
0
LINE
5
1503
100
AcDbEntity
8
0
100
AcDbLine
10
19.920612600120069
20
-12.338120046900723
30
0
11
19.912255762620063
21
-12.25184525940071
31
0
0
LINE
5
1504
100
AcDbEntity
8
0
100
AcDbLine
10
19.912255762620063
20
-12.25184525940071
30
0
11
19.906089300120055
21
-12.186999021900714
31
0
0
LINE
5
1505
100
AcDbEntity
8
0
100
AcDbLine
10
19.906089300120055
20
-12.186999021900714
30
0
11
19.902265425120056
21
-12.145192559400721
31
0
0
LINE
5
1506
100
AcDbEntity
8
0
100
AcDbLine
10
19.902265425120056
20
-12.145192559400721
30
0
11
19.900954912620069
21
-12.128040809400723
31
0
0
LINE
5
1507
100
AcDbEntity
8
0
100
AcDbLine
10
19.900954912620069
20
-12.128040809400723
30
0
11
19.900954912620069
21
-12.078501209400713
31
0
0
LINE
5
1508
100
AcDbEntity
8
0
100
AcDbLine
10
19.900954912620069
20
-12.078501209400713
30
0
11
19.314498712620054
21
-12.099688446900714
31
0
0
LINE
5
1509
100
AcDbEntity
8
0
100
AcDbLine
10
19.314498712620054
20
-12.099688446900714
30
0
11
19.196582287620064
21
-12.104091471900716
31
0
0
LINE
5
1510
100
AcDbEntity
8
0
100
AcDbLine
10
19.196582287620064
20
-12.104091471900716
30
0
11
19.086354450120066
21
-12.108487071900713
31
0
0
LINE
5
1511
100
AcDbEntity
8
0
100
AcDbLine
10
19.086354450120066
20
-12.108487071900713
30
0
11
18.986246887620066
21
-12.112760159400713
31
0
0
LINE
5
1512
100
AcDbEntity
8
0
100
AcDbLine
10
18.986246887620066
20
-12.112760159400713
30
0
11
18.898687575120064
21
-12.116791934400721
31
0
0
LINE
5
1513
100
AcDbEntity
8
0
100
AcDbLine
10
18.898687575120064
20
-12.116791934400721
30
0
11
18.826104487620064
21
-12.120463596900727
31
0
0
LINE
5
1514
100
AcDbEntity
8
0
100
AcDbLine
10
18.826104487620064
20
-12.120463596900727
30
0
11
18.770925600120073
21
-12.123660059400725
31
0
0
LINE
5
1515
100
AcDbEntity
8
0
100
AcDbLine
10
18.770925600120073
20
-12.123660059400725
30
0
11
18.735582600120075
21
-12.126266234400722
31
0
0
LINE
5
1516
100
AcDbEntity
8
0
100
AcDbLine
10
18.735582600120075
20
-12.126266234400722
30
0
11
18.722496037620079
21
-12.128163321900715
31
0
0
LINE
5
1517
100
AcDbEntity
8
0
100
AcDbLine
10
18.722496037620079
20
-12.128163321900715
30
0
11
18.524051775120057
21
-14.530908171900702
31
0
0
LINE
5
1518
100
AcDbEntity
8
0
100
AcDbLine
10
18.524051775120057
20
-14.530908171900702
30
0
11
18.330838425120067
21
-16.961262884400696
31
0
0
LINE
5
1519
100
AcDbEntity
8
0
100
AcDbLine
10
18.330838425120067
20
-16.961262884400696
30
0
11
18.339232387620068
21
-16.965992609400701
31
0
0
LINE
5
1520
100
AcDbEntity
8
0
100
AcDbLine
10
18.339232387620068
20
-16.965992609400701
30
0
11
18.362999812620071
21
-16.970403059400695
31
0
0
LINE
5
1521
100
AcDbEntity
8
0
100
AcDbLine
10
18.362999812620071
20
-16.970403059400695
30
0
11
18.400484925120065
21
-16.974401421900708
31
0
0
LINE
5
1522
100
AcDbEntity
8
0
100
AcDbLine
10
18.400484925120065
20
-16.974401421900708
30
0
11
18.450020812620071
21
-16.977887459400694
31
0
0
LINE
5
1523
100
AcDbEntity
8
0
100
AcDbLine
10
18.450020812620071
20
-16.977887459400694
30
0
11
18.578618100120067
21
-16.982943884400687
31
0
0
LINE
5
1524
100
AcDbEntity
8
0
100
AcDbLine
10
18.578618100120067
20
-16.982943884400687
30
0
11
18.73551577512006
21
-16.984803846900697
31
0
0
LINE
5
1525
100
AcDbEntity
8
0
100
AcDbLine
10
19.139443200120077
20
-16.9848001344007
30
0
11
19.158896700120074
21
-16.867102746900702
31
0
0
LINE
5
1526
100
AcDbEntity
8
0
100
AcDbLine
10
19.158896700120074
20
-16.867102746900702
30
0
11
19.166514750120072
21
-16.801584546900699
31
0
0
LINE
5
1527
100
AcDbEntity
8
0
100
AcDbLine
10
19.166514750120072
20
-16.801584546900699
30
0
11
19.172866837620059
21
-16.710212496900702
31
0
0
LINE
5
1528
100
AcDbEntity
8
0
100
AcDbLine
10
19.172866837620059
20
-16.710212496900702
30
0
11
19.177292137620057
21
-16.605081921900705
31
0
0
LINE
5
1529
100
AcDbEntity
8
0
100
AcDbLine
10
19.177292137620057
20
-16.605081921900705
30
0
11
19.179129825120064
21
-16.498299284400694
31
0
0
LINE
5
1530
100
AcDbEntity
8
0
100
AcDbLine
10
19.179129825120064
20
-16.498299284400694
30
0
11
19.180922962620059
21
-16.395229146900693
31
0
0
LINE
5
1531
100
AcDbEntity
8
0
100
AcDbLine
10
19.180922962620059
20
-16.395229146900693
30
0
11
19.185236887620064
21
-16.300215134400688
31
0
0
LINE
5
1532
100
AcDbEntity
8
0
100
AcDbLine
10
19.185236887620064
20
-16.300215134400688
30
0
11
19.191421912620061
21
-16.2238118844007
31
0
0
LINE
5
1533
100
AcDbEntity
8
0
100
AcDbLine
10
19.191421912620061
20
-16.2238118844007
30
0
11
19.19883206262007
21
-16.176577746900698
31
0
0
LINE
5
1534
100
AcDbEntity
8
0
100
AcDbLine
10
19.19883206262007
20
-16.176577746900698
30
0
11
19.217754675120069
21
-16.105954859400708
31
0
0
LINE
5
1535
100
AcDbEntity
8
0
100
AcDbLine
10
19.217754675120069
20
-16.105954859400708
30
0
11
19.37103266262007
21
-16.105954859400708
31
0
0
LINE
5
1536
100
AcDbEntity
8
0
100
AcDbLine
10
19.37103266262007
20
-16.105954859400708
30
0
11
19.524314362620064
21
-16.105954859400708
31
0
0
LINE
5
1537
100
AcDbEntity
8
0
100
AcDbLine
10
19.524314362620064
20
-16.105954859400708
30
0
11
19.528301587620046
21
-16.192270484400531
31
0
0
ARC
5
1538
100
AcDbEntity
8
0
100
AcDbCircle
10
61.425445581411026
20
-14.123370054916798
30
0
40
41.948194524002737
210
0
220
0
230
1
100
AcDbArc
50
182.82699588476393
51
183.41735438580963
0
LINE
5
1539
100
AcDbEntity
8
0
100
AcDbLine
10
19.551842550120089
20
-16.623848609401065
30
0
11
19.571388862620068
21
-16.969107396900696
31
0
0
LINE
5
1540
100
AcDbEntity
8
0
100
AcDbLine
10
19.571388862620068
20
-16.969107396900696
30
0
11
19.981961662620058
21
-16.977831771900696
31
0
0
LINE
5
1541
100
AcDbEntity
8
0
100
AcDbLine
10
19.981961662620058
20
-16.977831771900696
30
0
11
20.392538175120066
21
-16.986552434400696
31
0
0
LINE
5
1542
100
AcDbEntity
8
0
100
AcDbLine
10
20.392538175120066
20
-16.986552434400696
30
0
11
20.381705100120058
21
-16.899364371900703
31
0
0
LINE
5
1543
100
AcDbEntity
8
0
100
AcDbLine
10
18.73551577512006
20
-16.984803846900697
30
0
11
19.139443200120077
21
-16.9848001344007
31
0
0
LINE
5
1544
100
AcDbEntity
8
0
100
AcDbLine
10
16.322791725120073
20
-18.208911621900693
30
0
11
16.322791725120073
21
-18.554174121900701
31
0
0
LINE
5
1545
100
AcDbEntity
8
0
100
AcDbLine
10
16.322791725120073
20
-18.554174121900701
30
0
11
30.070468800120025
21
-18.554174121900708
31
0
0
LINE
5
1546
100
AcDbEntity
8
0
100
AcDbLine
10
30.070468800120025
20
-18.554174121900708
30
0
11
43.818142162619999
21
-18.554174121900708
31
0
0
LINE
5
1547
100
AcDbEntity
8
0
100
AcDbLine
10
43.818142162619999
20
-18.554174121900708
30
0
11
43.818142162619999
21
-18.208911621900704
31
0
0
LINE
5
1548
100
AcDbEntity
8
0
100
AcDbLine
10
43.818142162619999
20
-18.208911621900704
30
0
11
43.818142162619999
21
-17.8636528344007
31
0
0
LINE
5
1549
100
AcDbEntity
8
0
100
AcDbLine
10
43.818142162619999
20
-17.8636528344007
30
0
11
30.070468800120025
21
-17.8636528344007
31
0
0
LINE
5
1550
100
AcDbEntity
8
0
100
AcDbLine
10
16.322791725120073
20
-17.863652834400693
30
0
11
16.322791725120073
21
-18.208911621900693
31
0
0
LINE
5
1551
100
AcDbEntity
8
0
100
AcDbLine
10
30.070468800120025
20
-17.8636528344007
30
0
11
16.322791725120073
21
-17.863652834400693
31
0
0
LINE
5
1552
100
AcDbEntity
8
0
100
AcDbLine
10
16.322791725120073
20
-18.977866896900689
30
0
11
16.322791725120073
21
-19.119149796900683
31
0
0
LINE
5
1553
100
AcDbEntity
8
0
100
AcDbLine
10
16.322791725120073
20
-19.119149796900683
30
0
11
30.07227307512003
21
-19.119149796900693
31
0
0
LINE
5
1554
100
AcDbEntity
8
0
100
AcDbLine
10
30.07227307512003
20
-19.119149796900693
30
0
11
43.821750712620002
21
-19.119149796900693
31
0
0
LINE
5
1555
100
AcDbEntity
8
0
100
AcDbLine
10
43.821750712620002
20
-19.119149796900693
30
0
11
43.812098212619986
21
-18.985748534400692
31
0
0
LINE
5
1556
100
AcDbEntity
8
0
100
AcDbLine
10
43.812098212619986
20
-18.985748534400692
30
0
11
43.802453137620006
21
-18.852350984400697
31
0
0
LINE
5
1557
100
AcDbEntity
8
0
100
AcDbLine
10
43.802453137620006
20
-18.852350984400697
30
0
11
30.062620575120029
21
-18.844473059400698
31
0
0
LINE
5
1558
100
AcDbEntity
8
0
100
AcDbLine
10
16.322791725120073
20
-18.836587709400689
30
0
11
16.322791725120073
21
-18.977866896900689
31
0
0
LINE
5
1559
100
AcDbEntity
8
0
100
AcDbLine
10
30.062620575120029
20
-18.844473059400698
30
0
11
16.322791725120073
21
-18.836587709400689
31
0
0
LINE
5
1560
100
AcDbEntity
8
0
100
AcDbLine
10
19.196756775120065
20
-14.968162709400698
30
0
11
19.219180275120056
21
-14.652496259400694
31
0
0
LINE
5
1561
100
AcDbEntity
8
0
100
AcDbLine
10
19.219180275120056
20
-14.652496259400694
30
0
11
19.242646987620066
21
-14.340438359400707
31
0
0
LINE
5
1562
100
AcDbEntity
8
0
100
AcDbLine
10
19.242646987620066
20
-14.340438359400707
30
0
11
19.266158250120075
21
-14.043612846900697
31
0
0
LINE
5
1563
100
AcDbEntity
8
0
100
AcDbLine
10
19.266158250120075
20
-14.043612846900697
30
0
11
19.288715400120058
21
-13.773628709400715
31
0
0
LINE
5
1564
100
AcDbEntity
8
0
100
AcDbLine
10
19.288715400120058
20
-13.773628709400715
30
0
11
19.29932201262007
21
-13.652333909400713
31
0
0
LINE
5
1565
100
AcDbEntity
8
0
100
AcDbLine
10
19.29932201262007
20
-13.652333909400713
30
0
11
19.309316062620066
21
-13.542102359400713
31
0
0
LINE
5
1566
100
AcDbEntity
8
0
100
AcDbLine
10
19.309316062620066
20
-13.542102359400713
30
0
11
19.318571325120061
21
-13.444393071900706
31
0
0
LINE
5
1567
100
AcDbEntity
8
0
100
AcDbLine
10
19.318571325120061
20
-13.444393071900706
30
0
11
19.326965287620077
21
-13.36065392190071
31
0
0
LINE
5
1568
100
AcDbEntity
8
0
100
AcDbLine
10
19.326965287620077
20
-13.36065392190071
30
0
11
19.334368012620061
21
-13.29233649690071
31
0
0
LINE
5
1569
100
AcDbEntity
8
0
100
AcDbLine
10
19.334368012620061
20
-13.29233649690071
30
0
11
19.340660700120068
21
-13.240892384400702
31
0
0
LINE
5
1570
100
AcDbEntity
8
0
100
AcDbLine
10
19.340660700120068
20
-13.240892384400702
30
0
11
19.345713412620064
21
-13.207776884400708
31
0
0
LINE
5
1571
100
AcDbEntity
8
0
100
AcDbLine
10
19.345713412620064
20
-13.207776884400708
30
0
11
19.349399925120053
21
-13.19443787190071
31
0
0
LINE
5
1572
100
AcDbEntity
8
0
100
AcDbLine
10
19.349399925120053
20
-13.19443787190071
30
0
11
19.35640541262007
21
-13.194682896900712
31
0
0
LINE
5
1573
100
AcDbEntity
8
0
100
AcDbLine
10
19.35640541262007
20
-13.194682896900712
30
0
11
19.362193200120071
21
-13.208638184400714
31
0
0
LINE
5
1574
100
AcDbEntity
8
0
100
AcDbLine
10
19.362193200120071
20
-13.208638184400714
30
0
11
19.366161862620064
21
-13.233886896900703
31
0
0
LINE
5
1575
100
AcDbEntity
8
0
100
AcDbLine
10
19.366161862620064
20
-13.233886896900703
30
0
11
19.367713687620075
21
-13.268012196900717
31
0
0
LINE
5
1576
100
AcDbEntity
8
0
100
AcDbLine
10
19.367713687620075
20
-13.268012196900717
30
0
11
19.369046475120069
21
-13.304661996900716
31
0
0
LINE
5
1577
100
AcDbEntity
8
0
100
AcDbLine
10
19.369046475120069
20
-13.304661996900716
30
0
11
19.372744125120075
21
-13.374145146900711
31
0
0
LINE
5
1578
100
AcDbEntity
8
0
100
AcDbLine
10
19.372744125120075
20
-13.374145146900711
30
0
11
19.378543050120062
21
-13.472418734400712
31
0
0
LINE
5
1579
100
AcDbEntity
8
0
100
AcDbLine
10
19.378543050120062
20
-13.472418734400712
30
0
11
19.386190800120062
21
-13.595439846900707
31
0
0
LINE
5
1580
100
AcDbEntity
8
0
100
AcDbLine
10
19.386190800120062
20
-13.595439846900707
30
0
11
19.39543121262005
21
-13.739161859400713
31
0
0
LINE
5
1581
100
AcDbEntity
8
0
100
AcDbLine
10
19.39543121262005
20
-13.739161859400713
30
0
11
19.406008125120071
21
-13.899541859400703
31
0
0
LINE
5
1582
100
AcDbEntity
8
0
100
AcDbLine
10
19.406008125120071
20
-13.899541859400703
30
0
11
19.417665375120077
21
-14.072536934400702
31
0
0
LINE
5
1583
100
AcDbEntity
8
0
100
AcDbLine
10
19.417665375120077
20
-14.072536934400702
30
0
11
19.43014680012006
21
-14.254100459400698
31
0
0
LINE
5
1584
100
AcDbEntity
8
0
100
AcDbLine
10
19.43014680012006
20
-14.254100459400698
30
0
11
19.442624512620064
21
-14.434914059400704
31
0
0
LINE
5
1585
100
AcDbEntity
8
0
100
AcDbLine
10
19.442624512620064
20
-14.434914059400704
30
0
11
19.45428176262007
21
-14.6057670219007
31
0
0
LINE
5
1586
100
AcDbEntity
8
0
100
AcDbLine
10
19.45428176262007
20
-14.6057670219007
30
0
11
19.464858675120063
21
-14.762761221900703
31
0
0
LINE
5
1587
100
AcDbEntity
8
0
100
AcDbLine
10
19.464858675120063
20
-14.762761221900703
30
0
11
19.474099087620065
21
-14.902005959400704
31
0
0
LINE
5
1588
100
AcDbEntity
8
0
100
AcDbLine
10
19.474099087620065
20
-14.902005959400704
30
0
11
19.481746837620069
21
-15.019599396900695
31
0
0
LINE
5
1589
100
AcDbEntity
8
0
100
AcDbLine
10
19.481746837620069
20
-15.019599396900695
30
0
11
19.487545762620062
21
-15.111658259400702
31
0
0
LINE
5
1590
100
AcDbEntity
8
0
100
AcDbLine
10
19.487545762620062
20
-15.111658259400702
30
0
11
19.491243412620069
21
-15.174276996900712
31
0
0
LINE
5
1591
100
AcDbEntity
8
0
100
AcDbLine
10
19.491243412620069
20
-15.174276996900712
30
0
11
19.492579912620069
21
-15.203568621900699
31
0
0
LINE
5
1592
100
AcDbEntity
8
0
100
AcDbLine
10
19.492579912620069
20
-15.203568621900699
30
0
11
19.492917750120075
21
-15.258495059400703
31
0
0
LINE
5
1593
100
AcDbEntity
8
0
100
AcDbLine
10
19.334858062620075
20
-15.258495059400703
30
0
11
19.176787237620069
21
-15.258495059400703
31
0
0
LINE
5
1594
100
AcDbEntity
8
0
100
AcDbLine
10
19.176787237620069
20
-15.258495059400703
30
0
11
19.196760487620065
21
-14.968162709400698
31
0
0
LINE
5
1595
100
AcDbEntity
8
0
100
AcDbLine
10
19.492917750120075
20
-15.258495059400703
30
0
11
19.334858062620075
21
-15.258495059400703
31
0
0
LINE
5
1596
100
AcDbEntity
8
0
100
AcDbLine
10
27.43392926262004
20
-12.873054171900723
30
0
11
27.493225312620044
21
-12.873054171900723
31
0
0
LINE
5
1597
100
AcDbEntity
8
0
100
AcDbLine
10
27.493225312620044
20
-12.873054171900723
30
0
11
27.556872412620042
21
-12.890658846900713
31
0
0
LINE
5
1598
100
AcDbEntity
8
0
100
AcDbLine
10
27.556872412620042
20
-12.890658846900713
30
0
11
27.626622862620032
21
-12.932985059400721
31
0
0
LINE
5
1599
100
AcDbEntity
8
0
100
AcDbLine
10
27.626622862620032
20
-12.932985059400721
30
0
11
27.70071693762004
21
-12.992915946900718
31
0
0
LINE
5
1600
100
AcDbEntity
8
0
100
AcDbLine
10
27.70071693762004
20
-12.992915946900718
30
0
11
27.710870625120045
21
-13.380255921900712
31
0
0
LINE
5
1601
100
AcDbEntity
8
0
100
AcDbLine
10
27.710870625120045
20
-13.380255921900712
30
0
11
27.721020600120045
21
-13.767599609400719
31
0
0
LINE
5
1602
100
AcDbEntity
8
0
100
AcDbLine
10
27.721020600120045
20
-13.767599609400719
30
0
11
27.687790012620034
21
-13.854750546900716
31
0
0
LINE
5
1603
100
AcDbEntity
8
0
100
AcDbLine
10
27.687790012620034
20
-13.854750546900716
30
0
11
27.654589125120033
21
-13.910935521900711
31
0
0
LINE
5
1604
100
AcDbEntity
8
0
100
AcDbLine
10
27.654589125120033
20
-13.910935521900711
30
0
11
27.604418400120025
21
-13.956309696900702
31
0
0
LINE
5
1605
100
AcDbEntity
8
0
100
AcDbLine
10
27.604418400120025
20
-13.956309696900702
30
0
11
27.542278575120033
21
-13.987468709400714
31
0
0
LINE
5
1606
100
AcDbEntity
8
0
100
AcDbLine
10
27.542278575120033
20
-13.987468709400714
30
0
11
27.473162962620027
21
-14.001011909400711
31
0
0
LINE
5
1607
100
AcDbEntity
8
0
100
AcDbLine
10
27.473162962620027
20
-14.001011909400711
30
0
11
27.43392926262004
21
-14.003001809400713
31
0
0
LINE
5
1608
100
AcDbEntity
8
0
100
AcDbLine
10
27.43392926262004
20
-13.43802984690071
30
0
11
27.43392926262004
21
-12.873054171900723
31
0
0
LINE
5
1609
100
AcDbEntity
8
0
100
AcDbLine
10
27.43392926262004
20
-14.003001809400713
30
0
11
27.43392926262004
21
-13.43802984690071
31
0
0
ENDSEC
0
SECTION
2
OBJECTS
0
DICTIONARY
5
C
100
AcDbDictionary
3
ACAD_GROUP
350
D
3
ACAD_MLINESTYLE
350
17
0
DICTIONARY
5
D
100
AcDbDictionary
0
DICTIONARY
5
1A
330
C
100
AcDbDictionary
0
DICTIONARY
5
17
100
AcDbDictionary
0
ENDSEC
0
EOF
