0
SECTION
2
HEADER
9
$INSUNITS
70
4
9
$ACADVER
1
AC1014
9
$HANDSEED
5
FFFF
0
ENDSEC
0
SECTION
2
TABLES
0
TABLE
2
VPORT
5
8
100
AcDbSymbolTable
0
ENDTAB
0
TABLE
2
LTYPE
5
5
100
AcDbSymbolTable
0
LTYPE
5
14
100
AcDbSymbolTableRecord
100
AcDbLinetypeTableRecord
2
BYBLOCK
70
0
0
LTYPE
5
15
100
AcDbSymbolTableRecord
100
AcDbLinetypeTableRecord
2
BYLAYER
70
0
0
ENDTAB
0
TABLE
2
LAYER
5
2
100
AcDbSymbolTable
70
2
0
LAYER
5
50
100
AcDbSymbolTableRecord
100
AcDbLayerTableRecord
2
0
70
0
6
CONTINUOUS
0
ENDTAB
0
TABLE
2
STYLE
5
3
100
AcDbSymbolTable
70
1
0
STYLE
5
11
100
AcDbSymbolTableRecord
100
AcDbTextStyleTableRecord
2
STANDARD
70
0
0
ENDTAB
0
TABLE
2
VIEW
5
6
100
AcDbSymbolTable
70
0
0
ENDTAB
0
TABLE
2
UCS
5
7
100
AcDbSymbolTable
70
0
0
ENDTAB
0
TABLE
2
APPID
5
9
100
AcDbSymbolTable
70
2
0
APPID
5
12
100
AcDbSymbolTableRecord
100
AcDbRegAppTableRecord
2
ACAD
70
0
0
ENDTAB
0
TABLE
2
DIMSTYLE
5
A
100
AcDbSymbolTable
70
1
0
ENDTAB
0
TABLE
2
BLOCK_RECORD
5
1
100
AcDbSymbolTable
70
1
0
BLOCK_RECORD
5
1F
100
AcDbSymbolTableRecord
100
AcDbBlockTableRecord
2
*MODEL_SPACE
0
BLOCK_RECORD
5
1B
100
AcDbSymbolTableRecord
100
AcDbBlockTableRecord
2
*PAPER_SPACE
0
ENDTAB
0
ENDSEC
0
SECTION
2
BLOCKS
0
BLOCK
5
20
100
AcDbEntity
100
AcDbBlockBegin
2
*MODEL_SPACE
0
ENDBLK
5
21
100
AcDbEntity
100
AcDbBlockEnd
0
BLOCK
5
1C
100
AcDbEntity
100
AcDbBlockBegin
2
*PAPER_SPACE
0
ENDBLK
5
1D
100
AcDbEntity
100
AcDbBlockEnd
0
ENDSEC
0
SECTION
2
ENTITIES
0
LWPOLYLINE
5
100
100
AcDbEntity
8
0
100
AcDbPolyline
90
4
70
1
43
0.0
10
-52.582802318548644
20
28.552543185382945
10
-52.58280231854863
20
28.574999999999999
10
-53.974999999999994
20
28.574999999999999
10
-53.974999999999994
20
27.748757479231834
0
LWPOLYLINE
5
101
100
AcDbEntity
8
0
100
AcDbPolyline
90
5
70
1
43
0.0
10
-50.582802318548644
20
28.574999999999999
10
-50.58280231854863
20
28.552543185382937
10
-45.58280231854863
20
25.665791839434817
10
-40.582802318548644
20
28.552543185382945
10
-40.582802318548644
20
28.574999999999999
0
LWPOLYLINE
5
102
100
AcDbEntity
8
0
100
AcDbPolyline
90
5
70
1
43
0.0
10
-38.582802318548644
20
28.574999999999999
10
-38.58280231854863
20
28.552543185382937
10
-33.58280231854863
20
25.665791839434817
10
-28.582802318548637
20
28.552543185382945
10
-28.582802318548648
20
28.574999999999999
0
LWPOLYLINE
5
103
100
AcDbEntity
8
0
100
AcDbPolyline
90
5
70
1
43
0.0
10
-26.582802318548637
20
28.574999999999999
10
-26.58280231854863
20
28.552543185382937
10
-21.58280231854863
20
25.665791839434817
10
-16.582802318548637
20
28.552543185382945
10
-16.582802318548644
20
28.574999999999999
0
LWPOLYLINE
5
104
100
AcDbEntity
8
0
100
AcDbPolyline
90
5
70
1
43
0.0
10
-14.582802318548636
20
28.574999999999999
10
-14.582802318548627
20
28.552543185382937
10
-9.5828023185486266
20
25.665791839434817
10
-4.5828023185486355
20
28.552543185382945
10
-4.5828023185486355
20
28.574999999999999
0
LWPOLYLINE
5
105
100
AcDbEntity
8
0
100
AcDbPolyline
90
5
70
1
43
0.0
10
-2.5828023185486249
20
28.574999999999999
10
-2.5828023185486249
20
28.552543185382937
10
2.4171976814513751
20
25.665791839434817
10
7.4171976814513663
20
28.552543185382945
10
7.4171976814513663
20
28.574999999999999
0
LWPOLYLINE
5
106
100
AcDbEntity
8
0
100
AcDbPolyline
90
5
70
1
43
0.0
10
9.4171976814513769
20
28.574999999999999
10
9.4171976814513769
20
28.552543185382937
10
14.417197681451377
20
25.665791839434817
10
19.41719768145137
20
28.552543185382945
10
19.417197681451363
20
28.574999999999999
0
LWPOLYLINE
5
107
100
AcDbEntity
8
0
100
AcDbPolyline
90
5
70
1
43
0.0
10
21.417197681451384
20
28.574999999999999
10
21.417197681451388
20
28.552543185382937
10
26.417197681451388
20
25.665791839434817
10
31.417197681451377
20
28.552543185382945
10
31.417197681451377
20
28.574999999999999
0
LWPOLYLINE
5
108
100
AcDbEntity
8
0
100
AcDbPolyline
90
5
70
1
43
0.0
10
33.417197681451384
20
28.574999999999999
10
33.417197681451384
20
28.552543185382937
10
38.417197681451384
20
25.665791839434817
10
43.41719768145137
20
28.552543185382945
10
43.41719768145137
20
28.574999999999999
0
LWPOLYLINE
5
109
100
AcDbEntity
8
0
100
AcDbPolyline
90
5
70
1
43
0.0
10
45.41719768145137
20
28.574999999999999
10
45.41719768145137
20
28.552543185382937
10
50.41719768145137
20
25.665791839434817
10
53.974999999999994
20
27.719889965772335
10
53.974999999999994
20
28.574999999999999
0
LWPOLYLINE
5
110
100
AcDbEntity
8
0
100
AcDbPolyline
90
6
70
1
43
0.0
10
-53.974999999999994
20
17.04692781477555
10
-51.582802318548637
20
15.665791839434817
10
-46.582802318548644
20
18.552543185382945
10
-46.582802318548644
20
24.326045877279196
10
-51.582802318548644
20
27.212797223227323
10
-53.974999999999994
20
25.831661247886586
0
LWPOLYLINE
5
111
100
AcDbEntity
8
0
100
AcDbPolyline
90
5
70
1
43
0.0
10
-44.582802318548637
20
24.326045877279192
10
-44.582802318548651
20
20.57499999999645
10
-34.582802318548651
20
20.574999999996841
10
-34.582802318548644
20
24.326045877279196
10
-39.582802318548644
20
27.212797223227323
0
LWPOLYLINE
5
112
100
AcDbEntity
8
0
100
AcDbPolyline
90
5
70
1
43
0.0
10
-32.58280231854863
20
24.326045877279192
10
-32.58280231854863
20
20.574999999996919
10
-22.582802318548644
20
20.57499999999731
10
-22.582802318548644
20
24.326045877279196
10
-27.582802318548644
20
27.212797223227323
0
LWPOLYLINE
5
113
100
AcDbEntity
8
0
100
AcDbPolyline
90
5
70
1
43
0.0
10
-20.58280231854863
20
24.326045877279192
10
-20.582802318548641
20
20.574999999997388
10
-10.582802318548641
20
20.574999999997779
10
-10.582802318548641
20
24.326045877279196
10
-15.582802318548641
20
27.212797223227323
0
LWPOLYLINE
5
114
100
AcDbEntity
8
0
100
AcDbPolyline
90
5
70
1
43
0.0
10
-8.5828023185486302
20
24.326045877279192
10
-8.5828023185486302
20
20.574999999997861
10
1.4171976814513609
20
20.574999999998251
10
1.4171976814513609
20
24.326045877279196
10
-3.5828023185486391
20
27.212797223227323
0
LWPOLYLINE
5
115
100
AcDbEntity
8
0
100
AcDbPolyline
90
5
70
1
43
0.0
10
3.4171976814513716
20
24.326045877279192
10
3.4171976814513627
20
20.574999999998333
10
13.417197681451359
20
20.574999999998724
10
13.417197681451363
20
24.326045877279196
10
8.4171976814513627
20
27.212797223227323
0
LWPOLYLINE
5
116
100
AcDbEntity
8
0
100
AcDbPolyline
90
5
70
1
43
0.0
10
15.417197681451373
20
24.326045877279192
10
15.41719768145137
20
20.574999999998802
10
25.417197681451363
20
20.574999999999193
10
25.417197681451363
20
24.326045877279196
10
20.417197681451363
20
27.212797223227323
0
LWPOLYLINE
5
117
100
AcDbEntity
8
0
100
AcDbPolyline
90
5
70
1
43
0.0
10
27.417197681451384
20
24.326045877279192
10
27.417197681451384
20
20.574999999999271
10
37.417197681451377
20
20.574999999999662
10
37.417197681451377
20
24.326045877279196
10
32.417197681451377
20
27.212797223227323
0
LWPOLYLINE
5
118
100
AcDbEntity
8
0
100
AcDbPolyline
90
7
70
1
43
0.0
10
39.417197681451377
20
24.326045877279192
10
39.417197681451377
20
20.574999999999743
10
45.974999999999994
20
20.575000000000003
10
45.974999999999994
20
16.565189427393086
10
49.41719768145137
20
18.552543185382945
10
49.41719768145137
20
24.326045877279196
10
44.41719768145137
20
27.212797223227323
0
LWPOLYLINE
5
119
100
AcDbEntity
8
0
100
AcDbPolyline
90
4
70
1
43
0.0
10
51.41719768145137
20
24.326045877279192
10
51.41719768145137
20
18.552543185382937
10
53.974999999999994
20
17.075795328235046
10
53.974999999999994
20
25.802793734427087
0
LWPOLYLINE
5
120
100
AcDbEntity
8
0
100
AcDbPolyline
90
4
70
1
43
0.0
10
45.974999999999994
20
-3.43481057260691
10
49.417197681451356
20
-1.4474568146170563
10
49.417197681451356
20
4.3260458772791965
10
45.974999999999994
20
6.3133996352690458
0
LWPOLYLINE
5
121
100
AcDbEntity
8
0
100
AcDbPolyline
90
6
70
1
43
0.0
10
53.974999999999994
20
15.158699096889787
10
50.417197681451356
20
17.212797223227323
10
45.974999999999994
20
14.648093196047842
10
45.974999999999994
20
8.2304958666142944
10
50.417197681451363
20
5.6657918394348172
10
53.974999999999994
20
7.7198899657723352
0
LWPOLYLINE
5
122
100
AcDbEntity
8
0
100
AcDbPolyline
90
6
70
1
43
0.0
10
-53.974999999999994
20
-2.9530721852244524
10
-51.582802318548644
20
-4.3342081605651828
10
-46.582802318548659
20
-1.4474568146170563
10
-46.582802318548659
20
4.3260458772791965
10
-51.582802318548659
20
7.212797223227323
10
-53.974999999999994
20
5.8316612478865926
0
LWPOLYLINE
5
123
100
AcDbEntity
8
0
100
AcDbPolyline
90
4
70
1
43
0.0
10
51.417197681451363
20
4.3260458772791921
10
51.417197681451363
20
-1.4474568146170608
10
53.974999999999994
20
-2.9242046717649561
10
53.974999999999994
20
5.8027937344270919
0
LWPOLYLINE
5
124
100
AcDbEntity
8
0
100
AcDbPolyline
90
4
70
1
43
0.0
10
-50.582802318548644
20
8.5525431853829392
10
-45.97499999999998
20
5.8922272763962935
10
-45.974999999999973
20
16.986361786265853
10
-50.582802318548644
20
14.326045877279192
0
LWPOLYLINE
5
125
100
AcDbEntity
8
0
100
AcDbPolyline
90
4
70
1
43
0.0
10
-52.582802318548651
20
8.5525431853829446
10
-52.582802318548651
20
14.326045877279196
10
-53.974999999999994
20
15.129831583430299
10
-53.974999999999994
20
7.7487574792318403
0
LWPOLYLINE
5
126
100
AcDbEntity
8
0
100
AcDbPolyline
90
7
70
1
43
0.0
10
44.417197681451356
20
-24.334208160565183
10
49.417197681451349
20
-21.447456814617055
10
49.417197681451349
20
-15.673954122720804
10
45.974999999999994
20
-13.686600364730959
10
45.974999999999994
20
-20.575000000000003
10
39.417197681451349
20
-20.575000000000003
10
39.417197681451356
20
-21.447456814617063
0
LWPOLYLINE
5
127
100
AcDbEntity
8
0
100
AcDbPolyline
90
5
70
1
43
0.0
10
-27.582802318548651
20
-24.334208160565183
10
-22.582802318548659
20
-21.447456814617055
10
-22.582802318548659
20
-20.575000000000003
10
-32.582802318548651
20
-20.575000000000003
10
-32.582802318548651
20
-21.447456814617063
0
LWPOLYLINE
5
128
100
AcDbEntity
8
0
100
AcDbPolyline
90
6
70
1
43
0.0
10
53.974999999999994
20
-4.8413009031102083
10
50.417197681451349
20
-2.787202776772677
10
45.974999999999994
20
-5.3519068039521533
10
45.974999999999994
20
-11.769504133385713
10
50.417197681451356
20
-14.334208160565183
10
53.974999999999994
20
-12.280110034227651
0
LWPOLYLINE
5
129
100
AcDbEntity
8
0
100
AcDbPolyline
90
5
70
1
43
0.0
10
27.417197681451366
20
-20.575000000000003
10
27.417197681451366
20
-21.447456814617063
10
32.41719768145137
20
-24.334208160565183
10
37.417197681451356
20
-21.447456814617055
10
37.417197681451356
20
-20.575000000000003
0
LWPOLYLINE
5
130
100
AcDbEntity
8
0
100
AcDbPolyline
90
5
70
1
43
0.0
10
-20.582802318548651
20
-20.575000000000003
10
-20.582802318548651
20
-21.447456814617063
10
-15.58280231854865
20
-24.334208160565183
10
-10.582802318548659
20
-21.447456814617055
10
-10.582802318548659
20
-20.575000000000003
0
LWPOLYLINE
5
131
100
AcDbEntity
8
0
100
AcDbPolyline
90
6
70
1
43
0.0
10
-53.974999999999994
20
-22.953072185224457
10
-51.582802318548659
20
-24.334208160565183
10
-46.582802318548666
20
-21.447456814617055
10
-46.582802318548666
20
-15.673954122720804
10
-51.582802318548666
20
-12.787202776772677
10
-53.974999999999994
20
-14.168338752113403
0
LWPOLYLINE
5
132
100
AcDbEntity
8
0
100
AcDbPolyline
90
5
70
1
43
0.0
10
-44.582802318548651
20
-21.447456814617063
10
-39.582802318548651
20
-24.334208160565183
10
-34.582802318548659
20
-21.447456814617055
10
-34.582802318548659
20
-20.575000000000003
10
-44.582802318548651
20
-20.575000000000003
0
LWPOLYLINE
5
133
100
AcDbEntity
8
0
100
AcDbPolyline
90
5
70
1
43
0.0
10
15.417197681451356
20
-20.575000000000003
10
15.417197681451356
20
-21.447456814617063
10
20.417197681451356
20
-24.334208160565183
10
25.417197681451349
20
-21.447456814617055
10
25.417197681451349
20
-20.575000000000003
0
LWPOLYLINE
5
134
100
AcDbEntity
8
0
100
AcDbPolyline
90
4
70
1
43
0.0
10
51.417197681451356
20
-15.673954122720808
10
51.417197681451356
20
-21.447456814617063
10
53.974999999999994
20
-22.924204671764965
10
53.974999999999994
20
-14.197206265572902
0
LWPOLYLINE
5
135
100
AcDbEntity
8
0
100
AcDbPolyline
90
5
70
1
43
0.0
10
-8.5828023185486515
20
-20.575000000000003
10
-8.5828023185486479
20
-21.447456814617063
10
-3.5828023185486475
20
-24.334208160565183
10
1.4171976814513436
20
-21.447456814617055
10
1.4171976814513343
20
-20.575000000000003
0
LWPOLYLINE
5
136
100
AcDbEntity
8
0
100
AcDbPolyline
90
5
70
1
43
0.0
10
3.4171976814513538
20
-20.575000000000003
10
3.4171976814513543
20
-21.447456814617063
10
8.4171976814513538
20
-24.334208160565183
10
13.417197681451345
20
-21.447456814617055
10
13.417197681451336
20
-20.575000000000003
0
LWPOLYLINE
5
137
100
AcDbEntity
8
0
100
AcDbPolyline
90
4
70
1
43
0.0
10
-50.582802318548651
20
-11.447456814617061
10
-45.974999999999994
20
-14.107772723603706
10
-45.97499999999998
20
-3.0136382137341444
10
-50.582802318548651
20
-5.6739541227208079
0
LWPOLYLINE
5
138
100
AcDbEntity
8
0
100
AcDbPolyline
90
4
70
1
43
0.0
10
-52.582802318548659
20
-11.447456814617055
10
-52.582802318548659
20
-5.6739541227208035
10
-53.974999999999994
20
-4.8701684165697046
10
-53.974999999999994
20
-12.251242520768146
0
LWPOLYLINE
5
139
100
AcDbEntity
8
0
100
AcDbPolyline
90
5
70
1
43
0.0
10
19.417197681451349
20
-28.574999999999999
10
19.417197681451341
20
-25.673954122720804
10
14.417197681451341
20
-22.787202776772677
10
9.4171976814513521
20
-25.673954122720808
10
9.4171976814513503
20
-28.574999999999999
0
LWPOLYLINE
5
140
100
AcDbEntity
8
0
100
AcDbPolyline
90
5
70
1
43
0.0
10
21.417197681451363
20
-25.673954122720808
10
21.41719768145137
20
-28.574999999999999
10
31.417197681451352
20
-28.574999999999999
10
31.417197681451352
20
-25.673954122720804
10
26.417197681451352
20
-22.787202776772677
0
LWPOLYLINE
5
141
100
AcDbEntity
8
0
100
AcDbPolyline
90
5
70
1
43
0.0
10
-21.582802318548666
20
-22.787202776772677
10
-26.582802318548655
20
-25.673954122720808
10
-26.582802318548655
20
-28.574999999999999
10
-16.582802318548666
20
-28.574999999999999
10
-16.582802318548666
20
-25.673954122720804
0
LWPOLYLINE
5
142
100
AcDbEntity
8
0
100
AcDbPolyline
90
5
70
1
43
0.0
10
-2.5828023185486511
20
-25.673954122720808
10
-2.5828023185486515
20
-28.574999999999999
10
7.4171976814513485
20
-28.574999999999999
10
7.4171976814513405
20
-25.673954122720804
10
2.4171976814513405
20
-22.787202776772677
0
LWPOLYLINE
5
143
100
AcDbEntity
8
0
100
AcDbPolyline
90
5
70
1
43
0.0
10
53.974999999999994
20
-24.841300903110213
10
50.417197681451341
20
-22.787202776772677
10
45.417197681451349
20
-25.673954122720808
10
45.417197681451341
20
-28.574999999999999
10
53.974999999999994
20
-28.574999999999999
0
LWPOLYLINE
5
144
100
AcDbEntity
8
0
100
AcDbPolyline
90
5
70
1
43
0.0
10
-28.582802318548666
20
-28.574999999999999
10
-28.582802318548666
20
-25.673954122720804
10
-33.582802318548666
20
-22.787202776772677
10
-38.582802318548659
20
-25.673954122720808
10
-38.582802318548659
20
-28.574999999999999
0
LWPOLYLINE
5
145
100
AcDbEntity
8
0
100
AcDbPolyline
90
5
70
1
43
0.0
10
38.417197681451341
20
-22.787202776772677
10
33.417197681451356
20
-25.673954122720808
10
33.417197681451363
20
-28.574999999999999
10
43.417197681451363
20
-28.574999999999999
10
43.417197681451341
20
-25.673954122720804
0
LWPOLYLINE
5
146
100
AcDbEntity
8
0
100
AcDbPolyline
90
5
70
1
43
0.0
10
-14.582802318548653
20
-25.673954122720808
10
-14.582802318548653
20
-28.574999999999999
10
-4.5828023185486622
20
-28.574999999999999
10
-4.5828023185486613
20
-25.673954122720804
10
-9.5828023185486604
20
-22.787202776772677
0
LWPOLYLINE
5
147
100
AcDbEntity
8
0
100
AcDbPolyline
90
5
70
1
43
0.0
10
-40.582802318548666
20
-25.673954122720804
10
-45.582802318548666
20
-22.787202776772677
10
-50.582802318548659
20
-25.673954122720808
10
-50.582802318548659
20
-28.574999999999999
10
-40.582802318548666
20
-28.574999999999999
0
LWPOLYLINE
5
148
100
AcDbEntity
8
0
100
AcDbPolyline
90
4
70
1
43
0.0
10
-52.582802318548673
20
-28.574999999999999
10
-52.582802318548673
20
-25.673954122720804
10
-53.974999999999994
20
-24.870168416569712
10
-53.974999999999994
20
-28.574999999999999
0
LINE
5
149
100
AcDbEntity
8
0
100
AcDbLine
10
53.974999999999994
20
-28.574999999999999
30
0
11
53.974999999999994
21
28.574999999999999
31
0
0
LINE
5
150
100
AcDbEntity
8
0
100
AcDbLine
10
53.974999999999994
20
28.574999999999999
30
0
11
-53.974999999999994
21
28.574999999999999
31
0
0
LINE
5
151
100
AcDbEntity
8
0
100
AcDbLine
10
-53.974999999999994
20
28.574999999999999
30
0
11
-53.974999999999994
21
-28.574999999999999
31
0
0
LINE
5
152
100
AcDbEntity
8
0
100
AcDbLine
10
-53.974999999999994
20
-28.574999999999999
30
0
11
53.974999999999994
21
-28.574999999999999
31
0
0
LWPOLYLINE
5
153
100
AcDbEntity
8
0
100
AcDbPolyline
90
4
70
1
43
0.0
10
45.974999999999994
20
-20.575000000000003
10
45.974999999999994
20
20.575000000000003
10
-45.974999999999973
20
20.575000000000003
10
-45.974999999999973
20
-20.575000000000003
0
LWPOLYLINE
5
154
100
AcDbEntity
8
0
100
AcDbPolyline
90
64
70
1
43
0.0
10
18.73551577512006
20
-16.984803846900697
10
18.578618100120067
20
-16.982943884400687
10
18.450020812620071
20
-16.977887459400694
10
18.400484925120065
20
-16.974401421900708
10
18.362999812620071
20
-16.970403059400695
10
18.339232387620068
20
-16.965992609400701
10
18.330838425120067
20
-16.961262884400696
10
18.524051775120057
20
-14.530908171900702
10
18.722496037620079
20
-12.128163321900715
10
18.735582600120075
20
-12.126266234400722
10
18.770925600120073
20
-12.123660059400725
10
18.826104487620064
20
-12.120463596900727
10
18.898687575120064
20
-12.116791934400721
10
18.986246887620066
20
-12.112760159400713
10
19.086354450120066
20
-12.108487071900713
10
19.196582287620064
20
-12.104091471900716
10
19.314498712620054
20
-12.099688446900714
10
19.900954912620069
20
-12.078501209400713
10
19.900954912620069
20
-12.128040809400723
10
19.902265425120056
20
-12.145192559400721
10
19.906089300120055
20
-12.186999021900714
10
19.912255762620063
20
-12.25184525940071
10
19.920612600120069
20
-12.338120046900723
10
19.930992750120069
20
-12.44420844690071
10
19.943232862620064
20
-12.568495521900713
10
19.957169587620058
20
-12.709370046900709
10
19.97264328762007
20
-12.865209659400712
10
19.989486900120053
20
-13.034406846900715
10
20.007544500120069
20
-13.215346671900715
10
20.026649025120058
20
-13.406414196900705
10
20.046637125120064
20
-13.605994484400714
10
20.08861436262006
20
-14.024233596900697
10
20.132180550120072
20
-14.457159359400702
10
20.17603631262007
20
-14.89184855940071
10
20.218871137620059
20
-15.315389121900713
10
20.239505212620067
20
-15.518945496900702
10
20.259393075120062
20
-15.714872684400699
10
20.278378800120063
20
-15.901552034400702
10
20.29629903762007
20
-16.077376034400697
10
20.312986725120062
20
-16.240729746900694
10
20.32828222512007
20
-16.389994521900697
10
20.342022187620064
20
-16.523559134400699
10
20.35404697512007
20
-16.639804934400694
10
20.364189525120061
20
-16.737124409400707
10
20.372290200120062
20
-16.813898909400706
10
20.378181937620067
20
-16.868517209400697
10
20.381708812620069
20
-16.899360659400699
10
20.392538175120066
20
-16.986552434400696
10
19.981961662620058
20
-16.977831771900696
10
19.571388862620068
20
-16.969107396900696
10
19.551842550120064
20
-16.623848609400742
42
-0.0025759306000648339
10
19.528301587620049
20
-16.19227048440052
10
19.524314362620064
20
-16.105954859400708
10
19.217754675120069
20
-16.105954859400708
10
19.19883206262007
20
-16.176577746900698
10
19.191421912620061
20
-16.2238118844007
10
19.185236887620064
20
-16.300215134400688
10
19.180922962620059
20
-16.395229146900693
10
19.179129825120064
20
-16.498299284400694
10
19.177292137620057
20
-16.605081921900705
10
19.172866837620059
20
-16.710212496900702
10
19.166514750120072
20
-16.801584546900699
10
19.158896700120074
20
-16.867102746900702
10
19.139443200120077
20
-16.9848001344007
0
LWPOLYLINE
5
155
100
AcDbEntity
8
0
100
AcDbPolyline
90
45
70
1
43
0.0
10
31.713725250120028
20
-15.938149859400713
10
31.734730575120022
20
-16.922029184400703
10
30.926994525120026
20
-16.922029184400703
10
30.910525875120033
20
-14.497350884400706
10
30.907359112620043
20
-14.010122384400709
10
30.90467868762002
20
-13.555255746900716
10
30.903535237620019
20
-13.343078946900707
10
30.902529150120024
20
-13.142737596900712
10
30.901660425120024
20
-12.955475384400707
10
30.900940200120029
20
-12.782539709400723
10
30.900372187620032
20
-12.625181684400726
10
30.89996010012004
20
-12.484648709400723
10
30.899707650120014
20
-12.362180759400719
10
30.899622262620028
20
-12.259032659400724
10
30.899703937620025
20
-12.176451809400728
10
30.899963812620026
20
-12.115678184400732
10
30.900405600120017
20
-12.077966609400725
10
30.901029300120015
20
-12.06456077190072
10
30.913584975120038
20
-12.062827034400719
10
30.946852687620037
20
-12.061015334400729
10
30.998567812620024
20
-12.059181359400725
10
31.06646201262004
20
-12.057373371900724
10
31.148259525120015
20
-12.055643346900728
10
31.241695725120042
20
-12.054054396900717
10
31.344498562620032
20
-12.052651071900719
10
31.454399700120021
20
-12.051492771900719
10
32.000798025120012
20
-12.04653287190073
10
32.160101400120006
20
-12.09954737190073
10
32.319408487620017
20
-12.152550734400718
10
32.417715487620022
20
-12.253976234400712
42
-0.10669993999996708
10
32.566668412620025
20
-12.496524996900719
10
32.617318050120019
20
-12.637648259400718
10
32.649464587620017
20
-13.061381871900748
42
-0.029490978999998009
10
32.663724300120016
20
-13.908841671900706
10
32.645826337620015
20
-14.332567859400719
10
32.598807525120023
20
-14.49036395940071
10
32.551792425120013
20
-14.648156346900713
10
32.448922762620029
20
-14.745542646900709
10
32.344887375120045
20
-14.833669971900708
10
32.24382941262003
20
-14.88825485940071
10
32.186144587620014
20
-14.906108271900711
10
32.119278750120024
20
-14.919347046900715
10
32.039924062620031
20
-14.929222296900711
10
31.944772687620034
20
-14.936992559400718
10
31.69271621262002
20
-14.954270534400717
0
LWPOLYLINE
5
156
100
AcDbEntity
8
0
100
AcDbPolyline
90
70
70
1
43
0.0
10
23.965626375120056
20
-16.952991434400701
10
23.792995125120054
20
-15.909571034400699
10
23.620367587620038
20
-14.8661543469007
10
23.603824687620065
20
-16.953418371900696
10
22.827303337620044
20
-16.953418371900696
10
22.808380725120049
20
-16.882795484400702
10
22.806450225120074
20
-16.863345696900694
10
22.804567987620064
20
-16.820399496900702
10
22.802748862620057
20
-16.755204284400701
10
22.800996562620071
20
-16.669003746900707
10
22.799325937620061
20
-16.563048996900697
10
22.797744412620048
20
-16.438580009400688
10
22.796259412620053
20
-16.296851609400701
10
22.794885787620057
20
-16.139107484400697
10
22.793630962620046
20
-15.966598746900708
10
22.792506075120063
20
-15.780565371900702
10
22.791522262620056
20
-15.582258471900703
10
22.790683237620048
20
-15.372925446900695
10
22.789498950120056
20
-14.926170621900702
10
22.789020037620066
20
-14.450272671900702
10
22.78860052512006
20
-12.088369034400714
10
23.573281950120059
20
-12.088369034400714
10
23.576994450120061
20
-12.943677059400713
10
23.578145325120062
20
-13.117358946900701
10
23.580001575120058
20
-13.283006984400718
10
23.582462962620031
20
-13.436730471900709
10
23.585440387620061
20
-13.574649846900716
10
23.588833612620043
20
-13.692878121900712
10
23.592542400120049
20
-13.787535734400713
10
23.596473937620065
20
-13.854735696900711
10
23.600539125120061
20
-13.890594734400707
10
23.620367587620038
20
-13.982211809400713
10
23.789754112620049
20
-13.074524121900721
10
23.824076175120055
20
-12.891390209400706
10
23.856664500120061
20
-12.71899284690071
10
23.886765450120055
20
-12.561215309400712
10
23.913629100120055
20
-12.421948296900716
10
23.936494387620058
20
-12.305067659400715
10
23.954615100120058
20
-12.214460384400718
10
23.967230175120051
20
-12.154013459400712
10
23.973589687620056
20
-12.127602734400721
10
23.988035025120045
20
-12.088369034400714
10
24.703233300120043
20
-12.088369034400728
10
24.703225875120047
20
-12.132570059400729
10
24.702082425120029
20
-12.142515846900723
10
24.698726325120035
20
-12.162867771900723
10
24.693272662620053
20
-12.193065246900726
10
24.685836525120042
20
-12.232543971900721
10
24.665451187620047
20
-12.337106534400714
10
24.638483587620037
20
-12.47207447190072
10
24.605832150120026
20
-12.632963084400714
10
24.568402725120038
20
-12.815280246900711
10
24.527097450120039
20
-13.014544971900712
10
24.482825887620034
20
-13.226268846900719
10
24.262418475120036
20
-14.275766609400712
10
24.515644387620036
20
-15.559664196900709
10
24.566847187620048
20
-15.818692746900709
10
24.61525818762005
20
-16.062511184400719
10
24.659774775120038
20
-16.285625009400704
10
24.699294337620039
20
-16.48255085940071
10
24.716832187620032
20
-16.569471621900707
10
24.73270312512005
20
-16.647790521900706
10
24.746773500120046
20
-16.716809609400709
10
24.758902237620035
20
-16.775853209400694
10
24.768951975120039
20
-16.824227084400697
10
24.776785350120043
20
-16.8612481344007
10
24.78225386262006
20
-16.886225834400701
10
24.785235000120053
20
-16.898484509400703
10
24.801618262620035
20
-16.953418371900707
10
24.383624175120033
20
-16.953203046900711
0
LWPOLYLINE
5
157
100
AcDbEntity
8
0
100
AcDbPolyline
90
6
70
1
43
0.0
10
30.062620575120029
20
-18.844473059400698
10
43.802453137620006
20
-18.852350984400697
10
43.812098212619986
20
-18.985748534400692
10
43.821750712620002
20
-19.119149796900693
10
16.322791725120069
20
-19.119149796900683
10
16.322791725120073
20
-18.836587709400689
0
LWPOLYLINE
5
158
100
AcDbEntity
8
0
100
AcDbPolyline
90
21
70
1
43
0.0
10
17.358582937620074
20
-16.9848001344007
10
17.358304500120077
20
-16.129495821900694
10
17.357847862620069
20
-15.9543215094007
10
17.356637587620064
20
-15.784396671900705
10
17.354762775120065
20
-15.623905296900706
10
17.352297675120077
20
-15.477031371900702
10
17.349331387620069
20
-15.347962596900695
10
17.345945587620061
20
-15.240879246900707
10
17.34222195012007
20
-15.159965309400709
10
17.338234725120078
20
-15.109408484400703
10
17.318450812620078
20
-14.944625459400701
10
17.076087675120071
20
-14.944625459400701
10
17.076087675120071
20
-16.9848001344007
10
16.260013350120076
20
-16.9848001344007
10
16.260013350120076
20
-12.119758221900716
10
17.044705912620078
20
-12.119758221900716
10
17.044705912620074
20
-13.877452484400711
10
17.32718632512006
20
-13.877452484400711
10
17.32718632512006
20
-12.119758221900717
10
18.143260650120062
20
-12.119758221900717
10
18.143260650120062
20
-16.9848001344007
0
LWPOLYLINE
5
159
100
AcDbEntity
8
0
100
AcDbPolyline
90
36
70
1
43
0.0
10
26.367027300120025
20
-16.302127071900706
42
0.029682957999967046
10
26.387100787620032
20
-16.788631634400705
10
26.406895837620013
20
-16.953418371900707
10
24.995640937620045
20
-16.953418371900707
10
24.975069975120043
20
-16.364901734400711
10
24.972976125120034
20
-16.295411159400707
10
24.970937962620035
20
-16.209143796900708
10
24.968966625120046
20
-16.107343334400696
10
24.96707696262003
20
-15.991264596900713
10
24.965276400120029
20
-15.862140134400713
10
24.963576075120034
20
-15.721221059400705
10
24.961987125120046
20
-15.569751059400712
10
24.960516975120044
20
-15.408977534400709
10
24.95798876262004
20
-15.06448723440071
10
24.956073112620039
20
-14.697707084400701
10
24.954851700120035
20
-14.318597721900709
10
24.954409912620044
20
-13.937112359400711
10
24.954320812620043
20
-12.097839621900723
10
25.260357037620054
20
-12.077573084400726
42
-0.016421894000008517
10
25.935185587620026
20
-12.057143196900723
10
26.30398905012003
20
-12.056987271900725
10
26.30398905012003
20
-13.029992684400717
10
25.73169232512004
20
-13.029992684400717
10
25.750614937620053
20
-13.100615571900715
10
25.754423962620034
20
-13.122968534400714
10
25.757995387620038
20
-13.159610909400721
10
25.761251250120047
20
-13.20861590940072
10
25.764106162620042
20
-13.268045609400719
10
25.768308712620026
20
-13.410468246900722
10
25.769964487620037
20
-13.571427396900715
10
25.770395137620035
20
-13.971612621900709
10
26.272592437620045
20
-13.971612621900709
10
26.272592437620041
20
-14.881847084400711
10
25.770395137620035
20
-14.881847084400711
10
25.770395137620035
20
-15.980405534400703
10
26.366752575120035
20
-15.980405534400703
0
LWPOLYLINE
5
160
100
AcDbEntity
8
0
100
AcDbPolyline
90
42
70
1
43
0.0
10
18.652998037620073
20
-9.769400459400714
10
18.763188750120072
20
-9.4438773219007235
10
18.811829925120072
20
-9.3006490719007147
10
18.854148712620059
20
-9.1764251094007321
10
18.88863412512007
20
-9.0757086969007208
10
18.913767750120073
20
-9.0029808219007208
10
18.966303337620065
20
-8.8523164344007235
10
19.10922716262008
20
-8.8617424719007225
10
19.252150987620066
20
-8.8711610844007289
10
19.623445537620064
20
-9.9383340594007183
10
19.69803337512008
20
-10.152868296900714
10
19.767627900120068
20
-10.353317309400719
10
19.830699562620072
20
-10.535274359400722
10
19.885726237620069
20
-10.694328996900717
10
19.931189512620058
20
-10.826074484400724
10
19.965559837620056
20
-10.92610037190072
10
19.978108087620054
20
-10.962839271900716
10
19.987311375120072
20
-10.989996209400719
10
19.992984075120063
20
-11.007018021900716
10
19.994929425120056
20
-11.013351546900713
10
19.985562787620069
20
-11.016399509400719
10
19.959916837620057
20
-11.01889430940072
10
19.921915687620075
20
-11.020579784400713
10
19.875476025120058
20
-11.02119977190072
10
19.755822150120064
20
-11.02119977190072
10
19.66554900012007
20
-10.738711934400719
10
19.575272137620068
20
-10.456224096900719
10
18.655351762620064
20
-10.456224096900719
10
18.482052262620069
20
-11.02119977190072
10
18.359736525120056
20
-11.02119977190072
10
18.312246225120077
20
-11.020331046900715
10
18.273354075120078
20
-11.017966184400718
10
18.247077000120079
20
-11.01446529690072
10
18.237424500120071
20
-11.010188496900719
10
18.243850837620062
20
-10.989246284400714
10
18.262120050120071
20
-10.933402859400713
10
18.290721150120056
20
-10.847157771900715
10
18.32813572512007
20
-10.734995721900713
10
18.372852787620072
20
-10.60140883440072
10
18.423361350120064
20
-10.450896659400716
10
18.478143000120074
20
-10.287947609400717
10
18.535683037620071
20
-10.117053809400725
0
LWPOLYLINE
5
161
100
AcDbEntity
8
0
100
AcDbPolyline
90
82
70
1
43
0.0
10
24.968639925120044
20
-10.723739421900721
42
0.07504517399998907
10
25.307806500120055
20
-10.820316396900729
10
25.472221987620046
20
-10.839599121900726
10
25.603328925120039
20
-10.804256121900726
10
25.734424725120057
20
-10.768913121900725
10
25.815193875120038
20
-10.67293757190072
10
25.89594817512004
20
-10.57695830940073
10
25.89594817512004
20
-10.43960323440073
10
25.891615687620039
20
-10.34575865940073
10
25.876617187620056
20
-10.268004059400727
10
25.847938125120038
20
-10.203625596900725
10
25.802556525120028
20
-10.149902009400725
10
25.737461550120038
20
-10.10412317190073
10
25.649642362620042
20
-10.063567821900715
10
25.536076987620042
20
-10.025529546900728
10
25.393758300120048
20
-9.9872833719007392
10
25.28382003762005
20
-9.9572529594007246
10
25.187321025120035
20
-9.9250544469007274
10
25.10352990012003
20
-9.8902534719007207
10
25.031704162620048
20
-9.8524008219007229
10
24.971108737620035
20
-9.8110695594007247
10
24.921015975120046
20
-9.7658067594007196
10
24.880683375120043
20
-9.7161817719007253
10
24.84937215012004
20
-9.6617490969007243
10
24.797393437620052
20
-9.5521969344007385
10
24.797389725120045
20
-9.3911523969007273
10
24.808430700120038
20
-9.2490638844007265
10
24.843294787620039
20
-9.1286006844007357
10
24.904565887620038
20
-9.0236780094007223
10
24.994846462620039
20
-8.9282184969007403
10
25.107487425120034
20
-8.8293137844007177
10
25.283422800120036
20
-8.7927939219007261
10
25.407995737620034
20
-8.7741126219007306
10
25.534261575120052
20
-8.7730471344007306
10
25.604320162620049
20
-8.7795031719007266
10
25.682353200120048
20
-8.790822584400722
10
25.770874050120035
20
-8.8071612969007234
10
25.87240721262004
20
-8.8286715219007323
10
26.021493787620045
20
-8.8617313344007282
10
26.021493787620045
20
-9.1132866219007251
10
25.966567350120037
20
-9.0917429844007245
42
0.0290938449999757
10
25.723320637620034
20
-9.0206263344007294
10
25.534985512620043
20
-8.9710533219007189
10
25.388111587620045
20
-8.9933246094007284
10
25.262469450120033
20
-9.0256530594007209
10
25.164336937620043
20
-9.0804421344007231
10
25.09356555012004
20
-9.1578106344007217
10
25.049999362620028
20
-9.2578773594007391
10
25.018617600120052
20
-9.3744312969007204
10
25.043090400120036
20
-9.4659332844007267
10
25.060205025120041
20
-9.5128444344007317
10
25.085910375120054
20
-9.5545283844007294
10
25.121728575120052
20
-9.5919095469007374
10
25.169181750120053
20
-9.62591233440072
10
25.229784600120048
20
-9.6574537344007272
10
25.305066675120038
20
-9.6874618719007355
10
25.396542675120024
20
-9.7168574469007201
10
25.505738437620053
20
-9.7465611594007324
10
25.618854600120038
20
-9.7760606844007381
10
25.709324512620046
20
-9.8019256719007188
10
25.781413837620022
20
-9.8262685344007235
10
25.839391950120039
20
-9.8512091094007292
10
25.930110600120049
20
-9.9113330469007259
10
26.015642887620043
20
-9.9992376219007291
10
26.085007237620033
20
-10.097678271900726
10
26.127366862620036
20
-10.208726571900719
10
26.139139200120034
20
-10.271902184400739
10
26.145023512620035
20
-10.341738021900719
10
26.14530566262005
20
-10.419403521900726
10
26.140275225120035
20
-10.506064409400718
10
26.125974675120034
20
-10.67853973440072
10
26.063946225120045
20
-10.761614346900725
10
25.989506887620053
20
-10.846203659400722
10
25.903729575120042
20
-10.914435696900719
10
25.803744525120038
20
-10.968200121900722
10
25.686670837620028
20
-11.00938288440072
10
25.534985512620043
20
-11.051950409400725
10
25.336062337620035
20
-11.035418646900723
42
-0.059449959999988561
10
24.975110812620049
20
-10.965115034400725
10
24.813086175120034
20
-10.911343184400724
10
24.803478225120053
20
-10.778899746900725
10
24.793870275120042
20
-10.646448884400728
0
LWPOLYLINE
5
162
100
AcDbEntity
8
0
100
AcDbPolyline
90
17
70
1
43
0.0
10
30.79195233762001
20
-9.946182284400729
10
30.791477137620021
20
-9.7414007844007262
10
30.790289137620039
20
-9.547574871900725
10
30.788466300120021
20
-9.3691409844007207
10
30.786086587620012
20
-9.2105392719007195
10
30.783231675120017
20
-9.076217309400727
10
30.779979525120027
20
-8.9706115344007227
10
30.77822722512003
20
-8.9299633719007261
10
30.776408100120026
20
-8.8981620969007231
10
30.774525862620024
20
-8.87576458440072
10
30.772595362620034
20
-8.8633165719007234
10
30.753669037620032
20
-8.7926973969007278
10
31.012092450120036
20
-8.7926973969007278
10
31.012092450120036
20
-10.73871193440073
10
31.985097862620016
20
-10.73871193440073
10
31.985097862620016
20
-10.958421396900722
10
30.792375562620045
20
-10.958421396900722
0
LWPOLYLINE
5
163
100
AcDbEntity
8
0
100
AcDbPolyline
90
63
70
1
43
0.0
10
34.469963212620009
20
-14.395342521900712
10
34.518626662620036
20
-14.869666371900712
10
34.564104787620025
20
-15.31495104690072
10
34.585332862620028
20
-15.523597259400708
10
34.605387787620039
20
-15.721258184400714
10
34.624147050120023
20
-15.906686421900709
10
34.641480712620016
20
-16.078638284400707
10
34.65726997512003
20
-16.235877509400712
10
34.671381187620021
20
-16.377152984400702
10
34.683695550120028
20
-16.501224734400708
10
34.694090550120023
20
-16.606849071900708
10
34.702432537620027
20
-16.692782309400716
10
34.708602712620021
20
-16.757784471900706
10
34.712474850120032
20
-16.800611871900706
10
34.713919012620011
20
-16.820020821900698
10
34.715801250120009
20
-16.89063999690071
10
33.909126975120039
20
-16.89063999690071
10
33.888734212620008
20
-16.603329621900695
42
-0.017717790000011165
10
33.868341450120028
20
-16.163910696900711
10
33.868341450120028
20
-16.01179472190071
10
33.523082662620027
20
-16.01179472190071
10
33.522919312620026
20
-16.160885009400687
42
-0.016260639999995826
10
33.502489425120004
20
-16.616004096900706
10
33.482226600120043
20
-16.922029184400703
10
32.65684132512002
20
-16.922029184400703
10
32.666987587620028
20
-16.820020821900698
10
32.668992337620033
20
-16.797326309400717
10
32.672998125120017
20
-16.749635534400703
10
32.678871300120029
20
-16.678633971900709
10
32.686478212620031
20
-16.585995959400709
10
32.695677787620028
20
-16.473403259400698
10
32.706340087620021
20
-16.34254505940071
10
32.718324037620022
20
-16.195099409400711
10
32.731499700120011
20
-16.032744359400716
10
32.745729712620019
20
-15.857169096900709
10
32.760876712620004
20
-15.670047959400701
10
32.776807050120027
20
-15.473066421900711
10
32.793387075120023
20
-15.267906246900711
10
32.827943025120014
20
-14.839780746900718
10
32.863464225120019
20
-14.399118134400709
10
32.898862912620046
20
-13.959376221900715
10
32.933058750120026
20
-13.534012821900721
10
32.949367762620028
20
-13.33092793440073
10
32.964971400120014
20
-13.136478321900704
10
32.979728587620016
20
-12.952353171900729
10
32.99350938762003
20
-12.780230534400712
10
33.006172725120038
20
-12.621792171900726
10
33.017592375120017
20
-12.47871984690072
10
33.027623550120005
20
-12.352695321900718
10
33.036136312620037
20
-12.245404071900722
10
33.042989587619999
20
-12.158524146900717
10
33.048057150120009
20
-12.09373730940073
10
33.051194212620004
20
-12.05272532190072
10
33.052270837620036
20
-12.037173659400723
10
33.064265925120026
20
-12.03474197190072
10
33.098651100120023
20
-12.032815184400732
10
33.153013237620009
20
-12.03140072190072
10
33.224939212620001
20
-12.030528284400727
10
33.31201961262002
20
-12.030205296900727
10
33.411841312620027
20
-12.030457746900719
10
33.521998612620017
20
-12.031300484400731
10
33.640078387620029
20
-12.032752071900719
10
34.227882225120027
20
-12.041287109400734
0
LWPOLYLINE
5
164
100
AcDbEntity
8
0
100
AcDbPolyline
90
62
70
1
43
0.0
10
17.782368525120059
20
-9.2143482969007309
42
0.07736165499996607
10
17.55481455012006
20
-9.0885762219007269
10
17.488216012620068
20
-9.0705074844007392
10
17.407246387620074
20
-9.0574803219007158
10
17.317092037620068
20
-9.049513296900729
10
17.222946750120084
20
-9.0466249719007301
10
17.130004312620073
20
-9.0488339094007273
10
17.043451087620063
20
-9.0561586719007288
10
16.968488287620072
20
-9.0686215344007302
10
16.91030227512006
20
-9.0862373469007309
10
16.798374112620071
20
-9.1508199969007205
10
16.701919650120061
20
-9.2422811469007176
10
16.622034075120073
20
-9.3575765469007219
10
16.559834850120069
20
-9.4936693719007383
10
16.516428300120069
20
-9.6475116594007204
10
16.492920750120078
20
-9.8160628719007157
10
16.49042223762007
20
-9.9962824719007255
10
16.510039087620068
20
-10.185126209400721
10
16.536921300120074
20
-10.316567271900723
10
16.572798900120059
20
-10.43299869690072
10
16.617928050120064
20
-10.534762034400721
10
16.672561200120079
20
-10.622195121900715
10
16.736950800120066
20
-10.69565064690072
10
16.811353012620074
20
-10.755462734400723
10
16.896020287620072
20
-10.801980359400726
10
16.991205075120067
20
-10.835541359400722
10
17.123173312620072
20
-10.871251896900713
10
17.327190037620067
20
-10.855974959400715
10
17.413219800120064
20
-10.846860771900715
10
17.496632250120079
20
-10.833336134400721
10
17.56791225012007
20
-10.817231309400722
10
17.617522387620067
20
-10.800361709400722
10
17.703841725120071
20
-10.760025396900716
10
17.703841725120071
20
-10.142354496900722
10
17.26441166262007
20
-10.142354496900722
10
17.26441166262007
20
-9.9226450344007215
10
17.954940375120088
20
-9.9226450344007215
10
17.954940375120081
20
-10.828602696900713
10
17.857646887620074
20
-10.897877946900714
10
17.736842137620073
20
-10.963466684400725
10
17.58300640285643
20
-11.023874263162501
42
-0.1506812024647583
10
16.88959023762007
20
-11.03452393440072
10
16.723080900120056
20
-10.985080859400727
10
16.573392900120062
20
-10.845063921900724
10
16.423704900120061
20
-10.705050696900713
10
16.354095525120059
20
-10.543230246900714
42
-0.064819259000000601
10
16.252751700120065
20
-10.167636621900719
10
16.22102838762007
20
-9.9538671594007155
10
16.257184425120069
20
-9.7107615219007197
10
16.275847162620074
20
-9.6043389969007276
10
16.299028012620074
20
-9.5071160469007268
10
16.327194750120078
20
-9.4180828719007224
10
16.360830000120082
20
-9.3362148219007128
10
16.446384562620082
20
-9.1898903469007269
10
16.559478450120071
20
-9.0599862594007181
10
16.689293437620076
20
-8.9339394594007224
10
16.853211450120067
20
-8.8751705844007347
10
17.017118325120073
20
-8.8164128469007288
10
17.531210475120076
20
-8.8435215219007208
10
17.711682525120061
20
-8.9262285969007209
10
17.892162000120081
20
-9.0089356719007228
10
17.892162000120081
20
-9.2980837344007288
0
LWPOLYLINE
5
165
100
AcDbEntity
8
0
100
AcDbPolyline
90
14
70
1
43
0.0
10
23.165244787620054
20
-8.8240828719007229
10
24.389356275120029
20
-8.8240828719007265
10
24.389356275120029
20
-9.0437960469007415
10
23.384957962620057
20
-9.0437960469007308
10
23.384957962620057
20
-9.7343173344007123
10
24.326577900120032
20
-9.7343173344007283
10
24.326577900120032
20
-9.9540267969007257
10
23.383135125120063
20
-9.9540267969007221
10
23.391892912620062
20
-10.369908471900718
10
23.40065070012006
20
-10.785793859400712
10
23.910699937620059
20
-10.773765359400716
10
24.42073803762004
20
-10.761733146900728
10
24.42073803762004
20
-11.021199771900728
10
23.165244787620054
20
-11.02119977190072
0
LWPOLYLINE
5
166
100
AcDbEntity
8
0
100
AcDbPolyline
90
9
70
1
43
0.0
10
29.254513275120026
20
-9.4439812719007357
42
0.011385443999985943
10
29.275087950120021
20
-10.542539721900683
10
29.295547537620045
20
-10.989810584400722
10
30.478505962620027
20
-10.989810584400722
10
30.478505962620027
20
-10.729664571900715
10
29.992005112620028
20
-10.751917296900729
10
29.505496837620029
20
-10.774170021900725
10
29.505496837620029
20
-8.7926973969007278
10
29.254398187620048
20
-8.7926973969007278
0
LWPOLYLINE
5
167
100
AcDbEntity
8
0
100
AcDbPolyline
90
18
70
1
43
0.0
10
32.298971175120023
20
-8.7613082094007293
10
33.523082662620027
20
-8.7613082094007293
10
33.523082662620027
20
-8.9729912469007296
10
33.020885362620021
20
-8.9957488719007284
10
32.518684350120012
20
-9.0185102094007323
10
32.518684350120012
20
-9.6715463844007292
10
33.491693475120023
20
-9.6715463844007292
10
33.491693475120023
20
-9.8912558469007212
10
33.166508175120022
20
-9.8912521344007249
10
33.028752150120013
20
-9.8928299469007221
10
32.894066362620009
20
-9.8971178844007213
10
32.777898525120015
20
-9.9034625469007338
10
32.695696350120038
20
-9.9112105344007286
10
32.550069825120012
20
-9.9311763594007267
10
32.550069825120012
20
-10.73871193440073
10
33.554471850120024
20
-10.73871193440073
10
33.554471850120024
20
-10.958421396900722
10
32.298971175120023
20
-10.958421396900722
0
LWPOLYLINE
5
168
100
AcDbEntity
8
0
100
AcDbPolyline
90
43
70
1
43
0.0
10
26.759780100120054
20
-9.9540305094007149
10
26.688381300120039
20
-9.7476711969007219
10
26.620902900120029
20
-9.5523751344007337
10
26.558885587620029
20
-9.3726084594007268
10
26.503866337620032
20
-9.2128447344007309
10
26.457382125120045
20
-9.0775612344007399
10
26.42097735012004
20
-8.9712315219007355
10
26.407036912620036
20
-8.9303197719007237
10
26.39618898762004
20
-8.8983254469007314
10
26.388630337620029
20
-8.875801709400724
10
26.384554012620033
20
-8.8633165719007234
10
26.362527750120034
20
-8.7926973969007278
10
26.603985037620038
20
-8.7926973969007278
10
26.895635325120036
20
-9.6480017094007202
10
26.955035325120036
20
-9.8217355719007227
10
27.012018487620033
20
-9.9875321094007301
10
27.065226037620029
20
-10.141489484400736
10
27.113299200120036
20
-10.279720709400731
10
27.154882912620035
20
-10.398331371900724
10
27.188610975120042
20
-10.493419634400723
10
27.213124612620039
20
-10.561098509400715
10
27.227072475120039
20
-10.597473584400722
10
27.266848200120037
20
-10.691633721900724
10
27.575832150120021
20
-9.742161846900725
10
27.884812387620038
20
-8.7926973969007278
10
28.004637037620039
20
-8.7926936844007404
10
28.051158375120046
20
-8.7945536469007397
10
28.089267187620031
20
-8.7996100719007408
10
28.115020800120032
20
-8.8070944719007276
10
28.124491387620036
20
-8.81623464690073
10
28.122598012620035
20
-8.8242202344007303
10
28.117032975120033
20
-8.8429386594007404
10
28.107981900120031
20
-8.8718256219007419
10
28.095637837620025
20
-8.9103205344007286
10
28.061813250120036
20
-9.013877009400721
10
28.017051637620032
20
-9.1490936844007322
10
27.962860275120033
20
-9.3114598719007411
10
27.900731587620029
20
-9.4964574594007303
10
27.832172850120042
20
-9.6995831844007299
10
27.758683912620032
20
-9.916315221900728
10
27.392835600120033
20
-10.99285483440072
10
27.252915187620044
20
-10.983484484400732
10
27.112979925120033
20
-10.974121559400727
0
LWPOLYLINE
5
169
100
AcDbEntity
8
0
100
AcDbPolyline
90
11
70
1
43
0.0
10
20.309207400120059
20
-9.7107800844007279
10
20.308992075120067
20
-8.8240828719007229
10
20.560090725120077
20
-8.8240828719007229
10
20.560090725120077
20
-11.02119977190072
10
20.349450900120051
20
-11.02119977190072
10
20.329447950120066
20
-10.809334821900716
10
20.325423600120068
20
-10.748679996900714
10
20.321662837620057
20
-10.657107471900712
10
20.318243625120065
20
-10.539124221900719
10
20.315251350120072
20
-10.399240934400716
10
20.310881737620072
20
-10.071779871900723
0
LWPOLYLINE
5
170
100
AcDbEntity
8
0
100
AcDbPolyline
90
86
70
1
43
0.0
10
36.058289512620014
20
-11.931437946900726
10
36.226528875120003
20
-12.019327671900729
10
36.394775662619992
20
-12.107217396900726
10
36.512484187620011
20
-12.26257809690072
42
-0.082745925999967287
10
36.676710337619987
20
-12.55918085940073
10
36.700826737620005
20
-12.646673346900727
10
36.722403787619989
20
-12.753998009400716
10
36.741237300119991
20
-12.879057284400711
10
36.75711937512002
20
-13.01975360940072
10
36.769853250119994
20
-13.173993134400718
10
36.779231025120012
20
-13.339674584400719
10
36.785052225120012
20
-13.514700396900722
10
36.787108950119993
20
-13.69697672190072
10
36.787368825120012
20
-14.128551134400711
10
36.012644325120007
20
-14.128551134400711
10
35.991973125119998
20
-13.487684534400721
10
35.987429025120008
20
-13.357928946900719
10
35.982435712620024
20
-13.234907834400717
10
35.977152825120022
20
-13.121453834400709
10
35.97174742512
20
-13.020407009400714
10
35.966379150119998
20
-12.934588859400716
10
35.961215062620028
20
-12.866843159400714
10
35.956414800120015
20
-12.819998834400721
10
35.952145425120001
20
-12.796888521900719
10
35.915800050120026
20
-12.755902521900717
10
35.855323425119998
20
-12.727475909400713
10
35.77766163762
20
-12.707981571900707
10
35.725389637619998
20
-12.76027955940072
10
35.673113925120006
20
-12.812581259400719
10
35.673117637620031
20
-14.404341621900709
10
35.673607687620041
20
-14.725844121900709
10
35.675011012620018
20
-15.029166509400707
10
35.677234800119997
20
-15.307422096900712
10
35.680171387620007
20
-15.553735334400711
10
35.681879137620022
20
-15.662764034400713
10
35.683731675120008
20
-15.761226959400702
10
35.685710437620017
20
-15.848259096900703
10
35.687808000120008
20
-15.923010284400716
10
35.690013225120019
20
-15.984611796900715
10
35.692311262620024
20
-16.032206046900708
10
35.694687262620008
20
-16.064935446900705
10
35.697133800120014
20
-16.08194240940071
10
35.721153675120007
20
-16.167775409400711
10
35.801804025119999
20
-16.188015959400715
10
35.88244695012002
20
-16.208256509400705
10
35.933809387619995
20
-16.156890359400705
10
35.985175537620016
20
-16.105527921900705
10
36.018380137619999
20
-14.960318196900705
10
36.402876337619986
20
-14.951501009400712
10
36.787368825120012
20
-14.942694959400715
10
36.787368825120012
20
-15.365114346900711
10
36.783879075120005
20
-15.620697696900709
10
36.772737862619998
20
-15.841617434400721
10
36.752939100120017
20
-16.032335984400707
10
36.723480412619992
20
-16.197312059400719
10
36.683355712619992
20
-16.341008084400706
10
36.631558912620001
20
-16.467879059400708
10
36.567083925120002
20
-16.582391121900713
10
36.488924662619993
20
-16.688995559400716
10
36.38000733762
20
-16.821914196900703
10
36.216571950119999
20
-16.903359021900705
10
36.053136562620018
20
-16.984800134400707
10
35.831737912620021
20
-16.984113321900701
10
35.610342975120012
20
-16.983422796900701
10
35.469100912620007
20
-16.919564084400701
10
35.373767625120031
20
-16.869753471900715
10
35.287440862620002
20
-16.810431434400712
10
35.209808775119996
20
-16.741174746900711
10
35.140548375120034
20
-16.661578746900705
10
35.079344100120018
20
-16.571227634400707
10
35.025880387620028
20
-16.469705609400709
10
34.97983796262001
20
-16.356604296900716
10
34.940901262620024
20
-16.231504184400709
10
34.894220287620016
20
-16.058872934400711
10
34.881007500120049
20
-14.520895559400721
10
34.867805850120021
20
-12.982914471900715
10
34.904630137619996
20
-12.794586771900709
10
34.939453387620027
20
-12.655924896900718
10
34.987753012620011
20
-12.523882409400716
10
35.04818880012003
20
-12.400345259400719
10
35.119427962619994
20
-12.287195684400727
10
35.20013400012003
20
-12.186315921900729
10
35.28896670012
20
-12.099588209400714
10
35.384596987620007
20
-12.028898496900723
10
35.485677225120028
20
-11.976121596900725
10
35.592630637619997
20
-11.931437946900726
0
LWPOLYLINE
5
171
100
AcDbEntity
8
0
100
AcDbPolyline
90
53
70
1
43
0.0
10
27.744312825120041
20
-16.568922171900724
42
0.0047197592999803925
10
27.720771862620055
20
-15.518952921901398
10
27.70071693762003
20
-14.822094396900717
10
27.668355075120033
20
-14.789784509400704
10
27.614408737620021
20
-14.760749046900708
10
27.530160975120044
20
-14.736313371900723
10
27.424343587620026
20
-14.715148409400713
10
27.447116062620047
20
-15.834281534400709
10
27.469877400120033
20
-16.953418371900707
10
26.649247837620024
20
-16.953418371900707
10
26.649162450120023
20
-15.140793959400707
10
26.648720662620036
20
-14.763607671900711
10
26.647491825120024
20
-14.386465934400716
10
26.645561325120035
20
-14.019425909400711
10
26.643010837620032
20
-13.672552184400724
10
26.641529550120033
20
-13.509818459400716
10
26.639925750120042
20
-13.35590192190072
10
26.638210575120031
20
-13.212053684400722
10
26.636395162620047
20
-13.079535996900722
10
26.634490650120036
20
-12.959603684400726
10
26.632504462620041
20
-12.853515284400721
10
26.630447737620035
20
-12.762529334400714
10
26.62833161262002
20
-12.687904371900727
10
26.607586162620038
20
-12.047639196900715
10
27.234638550120025
20
-12.063959346900715
10
27.861702075120036
20
-12.080279496900735
10
28.008171337620034
20
-12.14506633440072
10
28.154651737620018
20
-12.209860596900718
10
28.249799400120033
20
-12.359897571900726
10
28.327134487620036
20
-12.49720067190073
10
28.37808483762003
20
-12.639237209400726
10
28.396925775120025
20
-12.724483634400716
10
28.41308257512004
20
-12.825864584400716
10
28.427850900120035
20
-12.948354809400723
10
28.442537550120022
20
-13.096940196900714
10
28.476265612620033
20
-13.462071996900713
10
28.443751537620034
20
-13.761329196900704
10
28.427063850120035
20
-13.885378671900714
10
28.405665000120031
20
-14.001914046900716
10
28.38231708762002
20
-14.097852471900705
10
28.359763650120033
20
-14.160107384400703
10
28.308304687620041
20
-14.259624659400707
10
28.149372562620041
20
-14.329768634400713
10
27.990429300120034
20
-14.399912609400708
10
28.085138887620037
20
-14.439142596900712
10
28.176440400120036
20
-14.490946821900705
10
28.261519762620033
20
-14.566459071900697
10
28.336478850120031
20
-14.661525059400709
10
28.397423250120038
20
-14.771994209400713
10
28.454016600120042
20
-14.897539821900711
10
28.463836162620034
20
-15.909786359400711
10
28.473648300120029
20
-16.922029184400703
10
27.747802575120033
20
-16.922029184400703
0
LWPOLYLINE
5
172
100
AcDbEntity
8
0
100
AcDbPolyline
90
4
70
1
43
0.0
10
43.818142162619999
20
-17.8636528344007
10
43.818142162619999
20
-18.554174121900708
10
16.322791725120069
20
-18.554174121900701
10
16.322791725120073
20
-17.863652834400693
0
LWPOLYLINE
5
173
100
AcDbEntity
8
0
100
AcDbPolyline
90
78
70
1
43
0.0
10
22.474723500120071
20
-15.038785596900698
10
22.473806512620065
20
-15.250650546900669
42
-0.017187996000012085
10
22.443987712620054
20
-15.857325021900708
10
22.415097037620058
20
-16.252127121900706
10
22.349055375120066
20
-16.428626796900701
10
22.283024850120064
20
-16.605115334400693
10
22.139384512620065
20
-16.764879059400702
10
22.033088212620061
20
-16.872426471900695
10
21.929969812620062
20
-16.953006284400701
10
21.823142625120056
20
-17.0111625969007
10
21.705731100120069
20
-17.051450646900697
10
21.644374612620069
20
-17.062380246900695
10
21.571546500120064
20
-17.066872371900697
10
21.491026087620043
20
-17.065361384400695
10
21.406592700120058
20
-17.058270509400696
10
21.241085737620047
20
-17.029097684400707
10
21.105256500120056
20
-16.982810234400702
10
20.982595500120055
20
-16.904587859400703
10
20.863595025120052
20
-16.795013421900695
10
20.759945737620061
20
-16.666579484400707
10
20.683338300120067
20
-16.531786034400696
10
20.657621812620061
20
-16.462432821900688
10
20.630483437620075
20
-16.370533596900692
10
20.605153050120055
20
-16.26806488440069
10
20.584860525120053
20
-16.166992071900694
10
20.544401700120062
20
-15.933323609400706
10
20.544401700120062
20
-12.888746909400711
10
20.602973812620064
20
-12.71611937190071
10
20.671536262620055
20
-12.548941784400718
10
20.757213337620048
20
-12.395025246900717
10
20.853445050120047
20
-12.264634821900714
10
20.95366027512004
20
-12.168031859400712
42
-0.35360935000000426
10
22.061711587620056
20
-12.201247596900711
10
22.189603500120064
20
-12.310718084400719
10
22.37792377512006
20
-12.700426634400708
10
22.410630900120054
20
-12.945949109400704
10
22.417202025120059
20
-13.005471621900714
10
22.423327650120051
20
-13.08072770940071
10
22.42888155012006
20
-13.168658271900702
10
22.433726362620057
20
-13.266204209400705
10
22.440754125120066
20
-13.477913234400711
10
22.443330600120063
20
-13.691396834400704
10
22.443330600120063
20
-14.191329509400695
10
21.664236487620055
20
-14.191329509400695
10
21.651784762620061
20
-13.555730946900702
10
21.64878877512006
20
-13.426981446900699
10
21.645042862620066
20
-13.304799359400707
10
21.640695525120055
20
-13.192006184400713
10
21.635895262620053
20
-13.091419709400711
10
21.630794287620063
20
-13.00586885940071
10
21.625541100120067
20
-12.938171421900709
10
21.620287912620061
20
-12.891152609400711
10
21.615179512620063
20
-12.867633921900714
10
21.581039362620061
20
-12.820462896900708
10
21.53507861262004
20
-12.796803134400694
10
21.481043175120057
20
-12.797515934400714
10
21.422675250120065
20
-12.823466309400713
10
21.352475587620052
20
-12.869456759400704
10
21.329721675120062
20
-13.081911996900708
10
21.327512737620062
20
-13.110806384400709
10
21.325578525120047
20
-13.153121459400705
10
21.323922750120062
20
-13.208029334400704
10
21.32254541262007
20
-13.27470954690072
10
21.32144280012006
20
-13.352330496900716
10
21.320618625120066
20
-13.440071721900711
10
21.320076600120068
20
-13.537105334400712
10
21.319816725120063
20
-13.642603446900702
10
21.320139712620048
20
-13.875696471900703
10
21.321598725120062
20
-14.132749971900706
10
21.324201187620069
20
-14.407159409400709
10
21.327947100120056
20
-14.692312821900696
10
21.348930150120047
20
-16.090262121900707
10
21.382045650120062
20
-16.176577746900698
10
21.415164862620063
20
-16.262893371900702
10
21.585798787620057
20
-16.262893371900702
10
21.622225837620061
20
-16.182944684400702
10
21.658649175120065
20
-16.103003421900695
10
21.658649175120065
20
-15.038785596900698
0
LWPOLYLINE
5
174
100
AcDbEntity
8
0
100
AcDbPolyline
90
98
70
1
43
0.0
10
29.787980962620011
20
-13.500800796900712
10
29.787980962620011
20
-13.18486704690072
10
29.78541933762002
20
-13.057402071900714
10
29.77843983762002
20
-12.943899809400715
10
29.77362472512003
20
-12.896249871900721
10
29.768107950120019
20
-12.856719171900721
10
29.762019450120036
20
-12.826863246900725
10
29.75548916262003
20
-12.808219071900711
10
29.714180175120013
20
-12.763271834400708
10
29.661184237620031
20
-12.750055334400713
10
29.605054950120035
20
-12.768179759400713
10
29.554357050120032
20
-12.817266434400725
10
29.505496837620029
20
-12.887024309400719
10
29.505496837620029
20
-13.160483346900717
10
29.508136425120021
20
-13.273603221900721
10
29.515323825120028
20
-13.37945773440071
10
29.525956425120043
20
-13.466181734400726
10
29.538946462620032
20
-13.521921209400725
10
29.553198750120035
20
-13.547292434400715
10
29.581057350120044
20
-13.585831896900713
10
29.620870200120031
20
-13.635642509400714
10
29.670985237620027
20
-13.694808621900719
10
29.795524762620033
20
-13.833593009400715
10
29.941466850120033
20
-13.986930396900705
10
30.036440025120026
20
-14.084918121900717
10
30.121252087620022
20
-14.174909121900715
10
30.196556437620032
20
-14.258210196900706
10
30.263006475120029
20
-14.336139284400705
10
30.371927512620019
20
-14.481145821900707
10
30.45322012512003
20
-14.620446246900716
10
30.512085525120014
20
-14.764554359400719
10
30.553728637620026
20
-14.924002521900711
10
30.583354387620012
20
-15.109297109400705
10
30.606160275120011
20
-15.330970484400712
10
30.63850728762004
20
-15.703545846900715
10
30.60639787512002
20
-16.047486696900705
10
30.574284750120015
20
-16.391427546900712
10
30.512579287620028
20
-16.523332671900711
10
30.423683475120015
20
-16.671416871900707
10
30.306984750120041
20
-16.801759034400707
10
30.170780550120018
20
-16.906637159400706
10
30.023386875120043
20
-16.9783218219007
10
29.969358862620012
20
-16.991297009400704
10
29.891849287620033
20
-17.002293434400709
10
29.801223450120027
20
-17.010152796900705
10
29.70783551262004
20
-17.013713084400703
10
29.486436862620025
20
-17.016189321900697
10
29.323406137620033
20
-16.934948684400709
42
-0.10047159999999272
10
29.049694650120024
20
-16.724397959400701
10
28.939010175120021
20
-16.595084159400706
10
28.874037712620016
20
-16.389756921900712
10
28.809065250120042
20
-16.184422259400712
10
28.791876375120022
20
-15.690069471900712
10
28.774683787620035
20
-15.195724109400706
10
29.49675018762003
20
-15.195724109400706
10
29.516545237620022
20
-15.360507134400713
42
-0.029670584000011661
10
29.536607587620018
20
-15.829072896900691
10
29.536882312620037
20
-16.132863059400705
10
29.587877212620022
20
-16.183854246900708
10
29.645343000120029
20
-16.219338321900697
10
29.707445700120019
20
-16.222252634400711
10
29.765791350120029
20
-16.194342059400707
10
29.811982275120023
20
-16.137344046900708
10
29.853243000120031
20
-16.058872934400711
10
29.842985362620027
20
-15.697921409400706
10
29.83272772512003
20
-15.336966171900709
10
29.781758812620041
20
-15.242802321900708
10
29.763493312620032
20
-15.215374371900708
10
29.730934687620028
20
-15.173330309400711
10
29.685902062620031
20
-15.118767696900711
10
29.630221987620018
20
-15.053784096900708
10
29.494207125120042
20
-14.900933046900708
10
29.337461662620044
20
-14.731557659400703
10
28.944137137620032
20
-14.314469421900704
10
28.877456925120025
20
-14.136254571900706
42
-0.042673539000017816
10
28.78148508762003
20
-13.803603434400717
10
28.768513612620033
20
-13.705463496900725
10
28.759518225120036
20
-13.575711621900716
10
28.75445808762003
20
-13.42440497190071
10
28.753284937620034
20
-13.26160813440071
10
28.755954225120032
20
-13.09737455940072
10
28.762417687620044
20
-12.941765121900715
10
28.772630775120032
20
-12.804836984400714
10
28.786545225120037
20
-12.696651021900713
10
28.820893275120024
20
-12.499413321900716
10
28.919942775120031
20
-12.334255334400726
10
29.018992275120027
20
-12.169093634400721
10
29.326751100120045
20
-11.97925123440073
10
29.56175977512002
20
-11.967386084400719
10
29.79676473762003
20
-11.955517221900729
10
29.925595912620029
20
-11.994112371900732
42
-0.083117464999991217
10
30.184561350120028
20
-12.126169709400729
10
30.314695612620028
20
-12.219628184400726
10
30.397127962620019
20
-12.371090759400714
10
30.479564025120006
20
-12.522549621900723
10
30.509453362620015
20
-12.75272833440072
42
-0.031355277000039282
10
30.540315375120031
20
-13.241857634401583
10
30.541276912620027
20
-13.500800796900716
0
LWPOLYLINE
5
175
100
AcDbEntity
8
0
100
AcDbPolyline
90
34
70
1
43
0.0
10
38.482284712619979
20
-11.985387996900725
10
38.482284712619979
20
-12.967214309400717
10
37.917316462619993
20
-12.967214309400717
10
37.917316462619993
20
-13.90884167190071
10
38.450902950119996
20
-13.90884167190071
10
38.450902950119996
20
-14.81907613440071
10
37.917316462619993
20
-14.81907613440071
10
37.917316462619993
20
-15.917630871900712
10
38.545063087619987
20
-15.917630871900712
10
38.545063087619987
20
-16.89063999690071
10
37.140531525119997
20
-16.89063999690071
10
37.125974812620008
20
-14.46596540940071
10
37.123108762619992
20
-13.978796309400714
10
37.12053971261998
20
-13.524111584400716
10
37.119385125120019
20
-13.312061009400708
10
37.118323350120008
20
-13.111871871900714
10
37.117361812620004
20
-12.924787859400716
10
37.116504225120003
20
-12.752052659400722
10
37.115758012620006
20
-12.594909959400717
10
37.115130600119997
20
-12.454610871900726
10
37.114629412619998
20
-12.332399084400727
10
37.114254450120001
20
-12.229514571900726
10
37.114016850120009
20
-12.147212159400731
10
37.113920325120006
20
-12.08673553440072
10
37.113972300119997
20
-12.049324671900731
10
37.11417648762
20
-12.036230684400735
10
37.128666375119998
20
-12.034745684400718
10
37.169117775119993
20
-12.032458784400728
10
37.232720325120006
20
-12.029481359400734
10
37.316663662620002
20
-12.025932209400727
10
37.418133712619984
20
-12.02192270940073
10
37.534323825119998
20
-12.017564234400728
10
37.662419925119998
20
-12.012979296900729
10
37.799611650119999
20
-12.008279271900722
0
LWPOLYLINE
5
176
100
AcDbEntity
8
0
100
AcDbPolyline
90
40
70
1
43
0.0
10
21.125066400120058
20
-8.8240828719007229
10
21.289845712620053
20
-8.8252411719007302
10
21.454636162620069
20
-8.8264031844007214
10
21.894055087620046
20
-9.7508008344007226
10
21.982750425120056
20
-9.9365000844007216
10
22.066311375120069
20
-10.10975503440072
10
22.142855700120059
20
-10.266775221900728
10
22.210493737620066
20
-10.403762759400717
10
22.26733582512006
20
-10.516930896900709
10
22.311499725120065
20
-10.602481746900718
10
22.328235675120062
20
-10.633715009400721
10
22.341092062620078
20
-10.656624846900719
10
22.349835000120066
20
-10.670732346900724
10
22.354230600120061
20
-10.675566021900714
10
22.358035912620068
20
-10.656743646900718
10
22.360887112620063
20
-10.602648809400719
10
22.362773062620072
20
-10.517083109400719
10
22.363678912620063
20
-10.403837009400718
10
22.363593525120056
20
-10.266712109400729
10
22.36250576262006
20
-10.109502584400715
10
22.360397062620066
20
-9.9360026094007203
10
22.357256287620064
20
-9.7500100719007143
10
22.33955137512006
20
-8.8240828719007229
10
22.600269112620062
20
-8.8240828719007229
10
22.600269112620058
20
-11.02119977190072
10
22.266441112620058
20
-11.02119977190072
10
21.834421200120069
20
-10.118813534400717
10
21.747047512620057
20
-9.9369344469007146
10
21.664399837620056
20
-9.7660814844007255
10
21.588367837620055
20
-9.6100748094007269
10
21.520841175120058
20
-9.4727420094007222
10
21.463709512620063
20
-9.3579069594007258
10
21.418862512620073
20
-9.2693898219007256
10
21.401636512620065
20
-9.2361963594007257
10
21.388193550120054
20
-9.2110144719007323
10
21.378763800120065
20
-9.1943267844007224
10
21.373584862620056
20
-9.1866084969007318
10
21.34477215012005
20
-9.156785984400738
10
21.34477215012005
20
-11.02119977190072
10
21.125066400120058
20
-11.02119977190072
0
LWPOLYLINE
5
177
100
AcDbEntity
8
0
100
AcDbPolyline
90
6
70
1
43
0.0
10
28.689511612620034
20
-9.3027429219007249
42
0.0086895497999798232
10
28.710167962620034
20
-10.401297659400573
10
28.730735212620033
20
-10.989810584400722
10
28.469705625120042
20
-10.989810584400722
10
28.469705625120042
20
-8.7926973969007278
10
28.689422512620034
20
-8.7926973969007278
0
LWPOLYLINE
5
178
100
AcDbEntity
8
0
100
AcDbPolyline
90
77
70
1
43
0.0
10
39.841282462620001
20
-13.535430996900729
10
39.714118200120005
20
-13.433927534400727
10
39.594894975119992
20
-13.326892446900715
10
39.48314501262
20
-13.21377257190071
10
39.378407962620003
20
-13.093996184400719
10
39.280219762619993
20
-12.967006409400717
10
39.188120062620001
20
-12.832235234400722
10
39.101644800119999
20
-12.689122071900725
10
39.020333625120003
20
-12.537102621900736
10
38.979399600119997
20
-12.447798434400724
10
38.93639028762
20
-12.340191621900731
10
38.893626000119994
20
-12.221666346900728
10
38.853430762619993
20
-12.099614196900719
10
38.818128600120005
20
-11.981423046900726
10
38.790036112619994
20
-11.874480771900725
10
38.771477325119996
20
-11.786178959400722
10
38.764772550119993
20
-11.723905484400724
10
38.764772550119993
20
-11.64895010940073
10
38.293964437620012
20
-11.64895010940073
10
38.293964437620012
20
-11.303687609400733
10
38.724172650119996
20
-11.303687609400733
10
38.743681837620009
20
-11.076126209400726
42
-0.17678027000000338
10
39.561690375119994
20
-9.3385128594007387
10
39.745284637619996
20
-9.1691448969007201
10
39.938338350119992
20
-9.0188814594007276
10
40.141189350120001
20
-8.8875666219007261
10
40.354179187619998
20
-8.7750370344007376
10
40.57763827511998
20
-8.6811367719007286
10
40.811915587619978
20
-8.6057061969007318
10
41.057337825120001
20
-8.5485782469007372
10
41.314250250119997
20
-8.5096044219007361
10
41.588139937619999
20
-8.4783785844007227
10
41.892999300119975
20
-8.5123739469007305
10
42.146035875120006
20
-8.5523872719007432
10
42.403739062619977
20
-8.6142709344007411
10
42.646068787619981
20
-8.6924079219007293
10
42.852981262619984
20
-8.7811886469007234
10
43.002067837619968
20
-8.8565301219007431
10
43.002067837619968
20
-6.8780646219007462
10
43.337280600119996
20
-6.8780646219007462
10
43.358720287619988
20
-7.9849464969007391
10
43.38015997511998
20
-9.0918246594007339
10
43.654079362619996
20
-9.3746911719007269
10
43.928002462619993
20
-9.657557684400734
10
44.065906987619982
20
-9.9016471344007293
10
44.157516637619963
20
-10.074545684400743
10
44.235898650119978
20
-10.24592210940073
10
44.301364875119987
20
-10.416942134400722
10
44.354227162619978
20
-10.588752921900735
10
44.394797362619983
20
-10.762516484400733
10
44.423391037619993
20
-10.939387409400725
10
44.440320037619998
20
-11.120516571900723
10
44.445892500119974
20
-11.307058559400883
42
-0.19690254999998838
10
43.646245987619977
20
-13.269571446900718
10
43.425801450119977
20
-13.493450046900715
10
43.445292075119973
20
-13.960089021900657
42
-0.008946777999981663
10
43.468829325119991
20
-15.107422296900712
10
43.472883375120006
20
-15.788105459400715
10
43.370871300119973
20
-15.800761371900718
42
-0.01184601972849113
10
43.202613375120002
20
-15.818447721900707
10
43.136363812619997
20
-15.823470734400711
10
43.116572475119987
20
-15.658687709400706
10
43.112588962620002
20
-15.607477484400718
10
43.108865325119972
20
-15.524703584400712
10
43.105479525119975
20
-15.41467250940071
10
43.102513237619974
20
-15.281709321900712
10
43.100051850119996
20
-15.130120521900706
10
43.098173325119987
20
-14.964220034400711
10
43.096966762619992
20
-14.788329209400711
10
43.096506412619995
20
-14.606758259400705
10
43.096235400119994
20
-13.71961183440072
10
42.900063187619978
20
-13.818705884400707
42
-0.077104852000013491
10
42.047045775119976
20
-14.098821434400719
10
41.809326975119994
20
-14.137167846900716
10
41.440538362619996
20
-14.120268546900707
10
41.071746037620009
20
-14.103376671900705
10
40.795903575120001
20
-14.021586584400715
42
-0.089618498000003669
0
LWPOLYLINE
5
179
100
AcDbEntity
8
0
100
AcDbPolyline
90
54
70
1
43
0.0
10
44.010832050119973
20
-11.900048759400724
10
44.071594537619994
20
-11.664639134400723
10
44.072025187619978
20
-10.974121559400734
10
44.007360862619969
20
-10.723019196900722
10
43.959848287619977
20
-10.563726959400723
10
43.899605550119993
20
-10.402856909400725
10
43.828429500120009
20
-10.243631496900733
10
43.748120700119976
20
-10.089280596900728
10
43.660479712619981
20
-9.9430192344007331
10
43.567310812620008
20
-9.8080772844007313
10
43.470410850120004
20
-9.6876734844007313
10
43.371580387619979
20
-9.5850302844007338
10
43.295789700119997
20
-9.5142143469007294
10
43.00768856261999
20
-9.7384010844007225
10
42.89582351261997
20
-9.8273228844007239
10
42.804213862619974
20
-9.9037038594007374
10
42.768963675119984
20
-9.9346512594007219
10
42.74231906261997
20
-9.9594099219007344
10
42.725464312619991
20
-9.9769737594007211
10
42.719583712619965
20
-9.986314409400741
10
42.734585925119973
20
-10.009417296900736
10
42.775430850119996
20
-10.054776621900734
10
42.83588148762
20
-10.115839821900732
10
42.909697125119976
20
-10.186054334400733
10
42.982651462619977
20
-10.254394034400731
10
43.040748375120003
20
-10.310359971900724
10
43.078107262620009
20
-10.348175496900735
10
43.088851237619998
20
-10.362063959400732
10
43.075100137619998
20
-10.364209784400726
10
43.039942762619994
20
-10.370353971900732
10
42.985747687619991
20
-10.380073296900726
10
42.914876062619996
20
-10.39292968440073
10
42.829700175119982
20
-10.408496196900728
10
42.732581175119975
20
-10.426338471900733
10
42.625887637619975
20
-10.446029571900723
10
42.511980712619973
20
-10.467135134400724
10
41.946073200119976
20
-10.572206309400737
10
41.706479587619974
20
-10.757467484400742
10
41.466878550119986
20
-10.942732371900741
10
41.465486362619998
20
-11.47690172190072
10
41.46409046262
20
-12.011071071900719
10
42.253772625119979
20
-12.618937259400722
10
42.413432400119987
20
-12.741316109400723
10
42.564364087619985
20
-12.856002659400721
10
42.703122487619993
20
-12.96045013440072
10
42.826266112619969
20
-13.052111759400709
10
42.930349762619983
20
-13.128440759400714
10
43.01192452511998
20
-13.186890359400715
10
43.043194912619995
20
-13.208615909400725
10
43.067545200119987
20
-13.224917496900721
10
43.084548450119982
20
-13.235472134400712
10
43.093770300119999
20
-13.239964259400715
10
43.144085812619998
20
-13.253125071900712
10
43.360472587619967
20
-13.03482635940072
42
0.13287251000000455
0
LWPOLYLINE
5
180
100
AcDbEntity
8
0
100
AcDbPolyline
90
71
70
1
43
0.0
10
41.754935137619967
20
-8.8688556219007388
10
41.479783200120004
20
-8.8485259719007416
10
41.190787350120019
20
-8.898845196900723
42
0.096538353999989224
10
40.255623450119991
20
-9.2468252469007322
10
40.065691950119991
20
-9.3831036969007222
10
39.867396187620002
20
-9.5550926844007336
10
39.773017012620002
20
-9.6470661594007385
10
39.686033137619994
20
-9.7390767594007226
10
39.609600187620003
20
-9.8281581969007288
10
39.546884925119976
20
-9.9113478969007236
10
39.458096775119998
20
-10.051981109400732
10
39.375809212619984
20
-10.206168659400737
10
39.301655737619996
20
-10.369243934400728
10
39.23727356261999
20
-10.536536609400734
10
39.184303612619999
20
-10.703387496900742
10
39.144383100120017
20
-10.865122559400728
10
39.119156662620007
20
-11.017082609400736
10
39.11025408762
20
-11.154597321900727
10
39.110035050120004
20
-11.303687609400733
10
39.99934586261999
20
-11.303687609400733
10
40.178414587619997
20
-11.303260671900732
10
40.346297550119992
20
-11.302035546900733
10
40.499259975119998
20
-11.300101334400733
10
40.633567087619994
20
-11.297539709400732
10
40.745484112619998
20
-11.294439771900729
10
40.831283700120011
20
-11.290886909400733
10
40.887223650119999
20
-11.286962796900728
10
40.90958032511999
20
-11.282760246900736
10
40.913782875120006
20
-11.263058009400728
10
40.91770327511999
20
-11.21471754690074
10
40.921256137619991
20
-11.140935321900731
10
40.924356075120002
20
-11.044911509400723
10
40.926917700119994
20
-10.929853709400735
10
40.928851912619997
20
-10.798954671900734
10
40.930077037619988
20
-10.655421996900746
10
40.93050397511999
20
-10.502448434400726
10
40.93050397511999
20
-9.7430639844007327
10
41.095287000120003
20
-9.7232689344007301
42
-0.029102502000034485
10
41.346385650120006
20
-9.703199159400727
10
41.432701275119975
20
-9.7029281469007298
10
41.433046537620001
20
-9.9932642094007278
10
41.434680037619998
20
-10.115045346900729
10
41.438864025119997
20
-10.232015084400729
10
41.444971087619976
20
-10.330871534400721
10
41.452366387619975
20
-10.398331371900733
10
41.471340975120007
20
-10.513066184400742
10
41.639784525119993
20
-10.382731446900726
10
41.808235500119999
20
-10.252392996900728
10
41.939646862619981
20
-9.8364185094007244
10
41.992201012620001
20
-9.6749024844007323
10
42.038154337619986
20
-9.542637246900739
10
42.05711036261998
20
-9.4917351594007329
10
42.072561787619989
20
-9.4532662344007328
10
42.083888625119968
20
-9.428934509400726
10
42.09047088762
20
-9.4204440219007282
10
42.110210250119991
20
-9.4328252094007237
10
42.149592450119997
20
-9.4665421344007257
10
42.202915087619964
20
-9.5164455594007311
10
42.264468337619974
20
-9.5773788219007301
10
42.326222062619991
20
-9.6383157969007307
10
42.380094150120001
20
-9.6882155094007345
10
42.420293100119977
20
-9.7219324344007276
10
42.441027412620002
20
-9.7343173344007301
10
42.72413523761999
20
-9.5285297469007428
10
42.99457601261998
20
-9.2998360344007303
10
42.980583600119985
20
-9.2761985469007229
10
42.931519200119979
20
-9.2405696844007288
10
42.854592487619982
20
-9.1964057844007421
10
42.757005712619986
20
-9.1471631844007266
10
42.528690675119989
20
-9.0472783719007293
10
42.304218075119977
20
-8.9685807969007278
42
0.05207956600000594
0
LWPOLYLINE
5
181
100
AcDbEntity
8
0
100
AcDbPolyline
90
62
70
1
43
0.0
10
40.85203657512001
20
-13.656198621900735
10
41.019258712620001
20
-13.699638584400713
10
41.199430050119986
20
-13.730767896900716
10
41.388329475119995
20
-13.749575421900724
10
41.581728450119982
20
-13.756057446900714
10
41.775402150120001
20
-13.750206546900721
10
41.965125750119995
20
-13.732019009400709
10
42.146678137619979
20
-13.701483696900718
10
42.315834487619988
20
-13.658593184400729
10
42.416257612619972
20
-13.626357546900715
10
42.507989775119981
20
-13.593550184400714
10
42.589007662619977
20
-13.56115862190072
10
42.657287962620003
20
-13.530170384400716
10
42.710807362619988
20
-13.501580421900725
10
42.747542550119988
20
-13.476376259400705
10
42.765466500119999
20
-13.455545421900725
10
42.762552187619995
20
-13.440086571900714
10
42.734463412619981
20
-13.416820334400709
10
42.683932575119989
20
-13.376732759400715
10
42.614282362619988
20
-13.322352059400728
10
42.528835462619988
20
-13.25620644690072
10
42.323853487619978
20
-13.098729621900729
10
42.095568150119973
20
-12.924527984400722
10
41.980992975119989
20
-12.83748099690072
10
41.870557237619963
20
-12.753830946900715
10
41.767591050119968
20
-12.676117184400734
10
41.675409675119973
20
-12.606864209400717
10
41.597339512619989
20
-12.54860023440072
10
41.536703250120006
20
-12.503853471900721
10
41.496823575119983
20
-12.475148421900727
10
41.481023175119986
20
-12.46502072190073
10
41.47762252511999
20
-12.470786234400716
10
41.47444833761999
20
-12.487310571900727
10
41.471574862619988
20
-12.513435434400723
10
41.469065212619995
20
-12.54799880940074
10
41.465426962619993
20
-12.637822746900733
10
41.46409046262
20
-12.747504846900719
10
41.46409046262
20
-13.029992684400719
10
40.966277625120014
20
-13.029992684400719
10
40.956239025119984
20
-12.342021884400719
10
40.953807337619992
20
-12.203411984400718
10
40.950733387620019
20
-12.073296284400723
10
40.947147112619994
20
-11.954585384400719
10
40.94316731262002
20
-11.850182459400722
10
40.938920212619998
20
-11.76299439690073
10
40.934535750119998
20
-11.695920659400729
10
40.930132725119996
20
-11.651875559400725
10
40.925837362620001
20
-11.633754846900732
10
40.903744275119976
20
-11.630135159400734
10
40.848331500119997
20
-11.627647784400734
10
40.763304112619998
20
-11.626281584400719
10
40.652359762619994
20
-11.626025421900735
10
40.519203525119977
20
-11.626875584400732
10
40.367529337619992
20
-11.628817221900718
10
40.201045987619977
20
-11.631842909400724
10
40.023447412620001
20
-11.635948934400728
10
39.14142052511999
20
-11.658435546900732
10
39.141424237620001
20
-11.730539721900719
10
39.14760183761998
20
-11.777859246900725
10
39.164423175119992
20
-11.853393771900723
10
39.189322912619993
20
-11.946748296900722
10
39.219728287620008
20
-12.047512971900714
42
0.2446024300000042
0
LWPOLYLINE
5
182
100
AcDbEntity
8
0
100
AcDbPolyline
90
33
70
1
43
0.0
10
33.841474087620007
20
-15.195724109400706
10
33.823164037620025
20
-15.030937371900723
10
33.817123800120008
20
-14.970471884400707
10
33.81002550012002
20
-14.889131009400716
10
33.802065900119999
20
-14.790025821900702
10
33.793449187620027
20
-14.676252546900708
10
33.775042612619998
20
-14.41711633440071
10
33.756394725120032
20
-14.136533009400715
10
33.739109325120026
20
-13.859320634400714
10
33.724782787620036
20
-13.610289846900713
10
33.719232600120044
20
-13.504097496900727
10
33.715015200120028
20
-13.414258709400714
10
33.712342200120027
20
-13.343873421900721
10
33.711406650120011
20
-13.296041571900709
10
33.709368487620011
20
-13.229301959400711
10
33.70382943762003
20
-13.17464653440071
10
33.695624812620032
20
-13.13771829690072
10
33.685608487620023
20
-13.124152821900715
10
33.67997291262003
20
-13.143457821900707
10
33.67193535012003
20
-13.19827288440071
10
33.661874475120015
20
-13.283953671900717
10
33.650180100120011
20
-13.395859559400714
10
33.637238325120038
20
-13.529342496900721
10
33.623427825120025
20
-13.679765571900715
10
33.60913841262002
20
-13.842473309400711
10
33.594748762620014
20
-14.012832509400706
10
33.567231712620014
20
-14.357913096900702
10
33.543946912620029
20
-14.677856346900718
10
33.534855000120025
20
-14.816789234400712
10
33.527975737620025
20
-14.935507559400714
10
33.523695225120029
20
-15.029363271900703
10
33.52239585012002
20
-15.093712034400717
10
33.523082662620027
20
-15.195724109400706
0
LWPOLYLINE
5
183
100
AcDbEntity
8
0
100
AcDbPolyline
90
8
70
1
43
0.0
10
31.788925650120014
20
-12.855297284400713
10
31.702610025120002
20
-12.834863684400721
10
31.702610025120002
20
-14.128551134400711
10
31.887373725120021
20
-14.128551134400711
10
31.936241362620024
20
-14.058793259400703
10
31.985097862620016
20
-13.989035384400712
10
31.985097862620016
20
-13.005560721900714
10
31.930171425120019
20
-12.940647659400719
42
0.16037169999998416
0
LWPOLYLINE
5
184
100
AcDbEntity
8
0
100
AcDbPolyline
90
13
70
1
43
0.0
10
27.473162962620027
20
-14.001011909400711
10
27.542278575120033
20
-13.987468709400714
10
27.604418400120025
20
-13.956309696900702
10
27.654589125120033
20
-13.910935521900711
10
27.687790012620034
20
-13.854750546900716
10
27.721020600120045
20
-13.767599609400719
10
27.710870625120045
20
-13.380255921900712
10
27.70071693762004
20
-12.992915946900718
10
27.626622862620032
20
-12.932985059400721
10
27.556872412620042
20
-12.890658846900713
10
27.493225312620044
20
-12.873054171900723
10
27.43392926262004
20
-12.873054171900723
10
27.43392926262004
20
-14.003001809400713
0
LWPOLYLINE
5
185
100
AcDbEntity
8
0
100
AcDbPolyline
90
24
70
1
43
0.0
10
19.120409212620071
20
-9.1464615219007293
10
19.095112237620064
20
-9.1012544094007239
10
18.917365162620072
20
-9.6496240719007158
10
18.881662050120063
20
-9.760171184400722
10
18.84835350012008
20
-9.8640617844007128
10
18.818167162620071
20
-9.9589718469007149
10
18.791834400120067
20
-10.042566209400714
10
18.770086575120068
20
-10.112517134400713
10
18.753647625120081
20
-10.166504309400722
10
18.743252625120078
20
-10.202188859400717
10
18.739621800120066
20
-10.217250471900712
10
18.747310387620068
20
-10.221122609400714
10
18.76934407512007
20
-10.224731159400713
10
18.80417475012008
20
-10.22800187190072
10
18.850265437620063
20
-10.230856784400721
10
18.970026975120064
20
-10.234996221900714
10
19.116273487620067
20
-10.236514634400715
10
19.262516287620077
20
-10.235631059400728
10
19.382277825120077
20
-10.23321793440072
10
19.428368512620068
20
-10.231554734400719
10
19.463199187620074
20
-10.229650221900709
10
19.485232875120076
20
-10.227545234400722
10
19.492921462620068
20
-10.225291746900719
10
19.315360012620072
20
-9.6917683719007268
0
LWPOLYLINE
5
186
100
AcDbEntity
8
0
100
AcDbPolyline
90
35
70
1
43
0.0
10
19.492579912620069
20
-15.203568621900699
10
19.491243412620069
20
-15.174276996900712
10
19.487545762620062
20
-15.111658259400702
10
19.481746837620069
20
-15.019599396900695
10
19.474099087620065
20
-14.902005959400704
10
19.464858675120063
20
-14.762761221900703
10
19.45428176262007
20
-14.6057670219007
10
19.442624512620064
20
-14.434914059400704
10
19.43014680012006
20
-14.254100459400698
10
19.417665375120077
20
-14.072536934400702
10
19.406008125120071
20
-13.899541859400703
10
19.39543121262005
20
-13.739161859400713
10
19.386190800120062
20
-13.595439846900707
10
19.378543050120062
20
-13.472418734400712
10
19.372744125120075
20
-13.374145146900711
10
19.369046475120069
20
-13.304661996900716
10
19.367713687620075
20
-13.268012196900717
10
19.366161862620064
20
-13.233886896900703
10
19.362193200120071
20
-13.208638184400714
10
19.35640541262007
20
-13.194682896900712
10
19.349399925120053
20
-13.19443787190071
10
19.345713412620064
20
-13.207776884400708
10
19.340660700120068
20
-13.240892384400702
10
19.334368012620061
20
-13.29233649690071
10
19.326965287620077
20
-13.36065392190071
10
19.318571325120061
20
-13.444393071900706
10
19.309316062620066
20
-13.542102359400713
10
19.29932201262007
20
-13.652333909400713
10
19.288715400120058
20
-13.773628709400715
10
19.266158250120075
20
-14.043612846900697
10
19.242646987620066
20
-14.340438359400707
10
19.219180275120056
20
-14.652496259400694
10
19.196756775120065
20
-14.968162709400698
10
19.176787237620069
20
-15.258495059400703
10
19.492917750120075
20
-15.258495059400703
0
ENDSEC
0
SECTION
2
OBJECTS
0
DICTIONARY
5
C
100
AcDbDictionary
3
ACAD_GROUP
350
D
3
ACAD_MLINESTYLE
350
17
0
DICTIONARY
5
D
100
AcDbDictionary
0
DICTIONARY
5
1A
330
C
100
AcDbDictionary
0
DICTIONARY
5
17
100
AcDbDictionary
0
ENDSEC
0
EOF
