0
SECTION
2
HEADER
9
$INSUNITS
70
4
9
$ACADVER
1
AC1014
9
$HANDSEED
5
FFFF
0
ENDSEC
0
SECTION
2
TABLES
0
TABLE
2
VPORT
5
8
100
AcDbSymbolTable
0
ENDTAB
0
TABLE
2
LTYPE
5
5
100
AcDbSymbolTable
0
LTYPE
5
14
100
AcDbSymbolTableRecord
100
AcDbLinetypeTableRecord
2
BYBLOCK
70
0
0
LTYPE
5
15
100
AcDbSymbolTableRecord
100
AcDbLinetypeTableRecord
2
BYLAYER
70
0
0
ENDTAB
0
TABLE
2
LAYER
5
2
100
AcDbSymbolTable
70
2
0
LAYER
5
50
100
AcDbSymbolTableRecord
100
AcDbLayerTableRecord
2
0
70
0
6
CONTINUOUS
0
ENDTAB
0
TABLE
2
STYLE
5
3
100
AcDbSymbolTable
70
1
0
STYLE
5
11
100
AcDbSymbolTableRecord
100
AcDbTextStyleTableRecord
2
STANDARD
70
0
0
ENDTAB
0
TABLE
2
VIEW
5
6
100
AcDbSymbolTable
70
0
0
ENDTAB
0
TABLE
2
UCS
5
7
100
AcDbSymbolTable
70
0
0
ENDTAB
0
TABLE
2
APPID
5
9
100
AcDbSymbolTable
70
2
0
APPID
5
12
100
AcDbSymbolTableRecord
100
AcDbRegAppTableRecord
2
ACAD
70
0
0
ENDTAB
0
TABLE
2
DIMSTYLE
5
A
100
AcDbSymbolTable
70
1
0
ENDTAB
0
TABLE
2
BLOCK_RECORD
5
1
100
AcDbSymbolTable
70
1
0
BLOCK_RECORD
5
1F
100
AcDbSymbolTableRecord
100
AcDbBlockTableRecord
2
*MODEL_SPACE
0
BLOCK_RECORD
5
1B
100
AcDbSymbolTableRecord
100
AcDbBlockTableRecord
2
*PAPER_SPACE
0
ENDTAB
0
ENDSEC
0
SECTION
2
BLOCKS
0
BLOCK
5
20
100
AcDbEntity
100
AcDbBlockBegin
2
*MODEL_SPACE
0
ENDBLK
5
21
100
AcDbEntity
100
AcDbBlockEnd
0
BLOCK
5
1C
100
AcDbEntity
100
AcDbBlockBegin
2
*PAPER_SPACE
0
ENDBLK
5
1D
100
AcDbEntity
100
AcDbBlockEnd
0
ENDSEC
0
SECTION
2
ENTITIES
0
SPLINE
5
100
100
AcDbEntity
8
0
100
AcDbSpline
70
4
71
3
72
8
73
4
74
0
42
0.000000001
43
0.0000000001
44
0.0000000001
40
0
40
0
40
0
40
0
40
1
40
1
40
1
40
1
41
1
41
1
41
1
41
1
10
2.8203787289709812
20
-22.247919955847848
30
0
10
-2.0486722710290008
20
-21.632871955847854
30
0
10
-6.0977392710289831
20
-17.765148955847874
30
0
10
-6.9422182710289748
20
-12.922554955847886
30
0
0
SPLINE
5
101
100
AcDbEntity
8
0
100
AcDbSpline
70
4
71
3
72
8
73
4
74
0
42
0.000000001
43
0.0000000001
44
0.0000000001
40
0
40
0
40
0
40
0
40
1
40
1
40
1
40
1
41
1
41
1
41
1
41
1
10
-6.9422182710289793
20
-12.922554955847886
30
0
10
-7.0079932710289805
20
-12.545370955847893
30
0
10
-7.061810271028981
20
-12.226596955847882
30
0
10
-7.061810271028981
20
-12.214167955847888
30
0
0
SPLINE
5
102
100
AcDbEntity
8
0
100
AcDbSpline
70
4
71
3
72
8
73
4
74
0
42
0.000000001
43
0.0000000001
44
0.0000000001
40
0
40
0
40
0
40
0
40
1
40
1
40
1
40
1
41
1
41
1
41
1
41
1
10
-7.061810271028981
20
-12.214167955847897
30
0
10
-7.061810271028981
20
-12.201747955847893
30
0
10
-7.6600972710289792
20
-12.179628955847894
30
0
10
-8.3913412710289741
20
-12.165033955847896
30
0
0
SPLINE
5
103
100
AcDbEntity
8
0
100
AcDbSpline
70
4
71
3
72
8
73
4
74
0
42
0.000000001
43
0.0000000001
44
0.0000000001
40
0
40
0
40
0
40
0
40
1
40
1
40
1
40
1
41
1
41
1
41
1
41
1
10
-8.3913412710289741
20
-12.165033955847896
30
0
10
-9.6118432710289685
20
-12.140673955847889
30
0
10
-9.7532482710289727
20
-12.122568955847889
30
0
10
-10.115678271028969
20
-11.94422195584789
30
0
0
SPLINE
5
104
100
AcDbEntity
8
0
100
AcDbSpline
70
4
71
3
72
8
73
4
74
0
42
0.000000001
43
0.0000000001
44
0.0000000001
40
0
40
0
40
0
40
0
40
1
40
1
40
1
40
1
41
1
41
1
41
1
41
1
10
-10.115678271028969
20
-11.94422195584789
30
0
10
-10.620749271028966
20
-11.695680955847894
30
0
10
-11.154575271028966
20
-11.161524955847897
30
0
10
-11.373473271028963
20
-10.685649955847904
30
0
0
SPLINE
5
105
100
AcDbEntity
8
0
100
AcDbSpline
70
4
71
3
72
8
73
4
74
0
42
0.000000001
43
0.0000000001
44
0.0000000001
40
0
40
0
40
0
40
0
40
1
40
1
40
1
40
1
41
1
41
1
41
1
41
1
10
-11.373473271028962
20
-10.6856499558479
30
0
10
-11.615936271028964
20
-10.158543955847898
30
0
10
-11.615936271028964
20
-9.1178313558479012
30
0
10
-11.373473271028962
20
-8.5907265558479047
30
0
0
SPLINE
5
106
100
AcDbEntity
8
0
100
AcDbSpline
70
4
71
3
72
8
73
4
74
0
42
0.000000001
43
0.0000000001
44
0.0000000001
40
0
40
0
40
0
40
0
40
1
40
1
40
1
40
1
41
1
41
1
41
1
41
1
10
-11.373473271028962
20
-8.5907265558479047
30
0
10
-11.154575271028966
20
-8.1148497558479189
30
0
10
-10.620749271028966
20
-7.5806940558479132
30
0
10
-10.115678271028969
20
-7.3321533558479137
30
0
0
LINE
5
107
100
AcDbEntity
8
0
100
AcDbLine
10
-10.115678271028969
20
-7.3321533558479137
30
0
11
-9.7208722710289699
21
-7.1378751558479117
31
0
0
LINE
5
108
100
AcDbEntity
8
0
100
AcDbLine
10
-9.7208722710289699
20
-7.1378751558479117
30
0
11
-4.6011832710289884
21
-7.1378751558479117
31
0
0
LINE
5
109
100
AcDbEntity
8
0
100
AcDbLine
10
-4.6011832710289884
20
-7.1378751558479117
30
0
11
0.51850272897098759
21
-7.1378751558479117
31
0
0
LINE
5
110
100
AcDbEntity
8
0
100
AcDbLine
10
0.51850272897098759
20
-7.1378751558479117
30
0
11
0.93256872897099163
21
-7.35614915584791
31
0
0
SPLINE
5
111
100
AcDbEntity
8
0
100
AcDbSpline
70
4
71
3
72
8
73
4
74
0
42
0.000000001
43
0.0000000001
44
0.0000000001
40
0
40
0
40
0
40
0
40
1
40
1
40
1
40
1
41
1
41
1
41
1
41
1
10
0.93256872897099163
20
-7.35614915584791
30
0
10
1.8529057289709916
20
-7.8413034558479202
30
0
10
2.3430847289709869
20
-8.6343525558479168
30
0
10
2.3430847289709869
20
-9.6381876558479078
30
0
0
SPLINE
5
112
100
AcDbEntity
8
0
100
AcDbSpline
70
4
71
3
72
8
73
4
74
0
42
0.000000001
43
0.0000000001
44
0.0000000001
40
0
40
0
40
0
40
0
40
1
40
1
40
1
40
1
41
1
41
1
41
1
41
1
10
2.3430847289709869
20
-9.6381876558479078
30
0
10
2.3430847289709869
20
-10.642596955847896
30
0
10
1.8512857289709916
20
-11.437746955847894
30
0
10
0.93256872897099163
20
-11.918733955847891
30
0
0
SPLINE
5
113
100
AcDbEntity
8
0
100
AcDbSpline
70
4
71
3
72
8
73
4
74
0
42
0.000000001
43
0.0000000001
44
0.0000000001
40
0
40
0
40
0
40
0
40
1
40
1
40
1
40
1
41
1
41
1
41
1
41
1
10
0.93256872897099163
20
-11.918733955847891
30
0
10
0.54372672897098906
20
-12.122307955847891
30
0
10
0.44447472897099272
20
-12.137250955847882
30
0
10
-0.69668927102900624
20
-12.164064955847881
30
0
0
LINE
5
114
100
AcDbEntity
8
0
100
AcDbLine
10
-0.69668927102899958
20
-12.164064955847884
30
0
11
-1.9118782710290005
21
-12.192624955847888
31
0
0
LINE
5
115
100
AcDbEntity
8
0
100
AcDbLine
10
-1.9118782710290005
20
-12.192624955847888
30
0
11
-1.8580072710290019
21
-12.443379955847881
31
0
0
SPLINE
5
116
100
AcDbEntity
8
0
100
AcDbSpline
70
4
71
3
72
8
73
4
74
0
42
0.000000001
43
0.0000000001
44
0.0000000001
40
0
40
0
40
0
40
0
40
1
40
1
40
1
40
1
41
1
41
1
41
1
41
1
10
-1.8580072710290019
20
-12.443379955847881
30
0
10
-1.6536352710290003
20
-13.394670955847886
30
0
10
-1.0836112710290036
20
-14.412939955847879
30
0
10
-0.27955127102900601
20
-15.263079955847871
30
0
0
SPLINE
5
117
100
AcDbEntity
8
0
100
AcDbSpline
70
4
71
3
72
8
73
4
74
0
42
0.000000001
43
0.0000000001
44
0.0000000001
40
0
40
0
40
0
40
0
40
1
40
1
40
1
40
1
41
1
41
1
41
1
41
1
10
-0.27955127102900601
20
-15.263079955847871
30
0
10
1.0192927289709897
20
-16.636362955847876
30
0
10
2.8258177289709794
20
-17.355909955847864
30
0
10
4.6741477289709756
20
-17.236161955847873
30
0
0
SPLINE
5
118
100
AcDbEntity
8
0
100
AcDbSpline
70
4
71
3
72
8
73
4
74
0
42
0.000000001
43
0.0000000001
44
0.0000000001
40
0
40
0
40
0
40
0
40
1
40
1
40
1
40
1
41
1
41
1
41
1
41
1
10
4.6741477289709756
20
-17.236161955847873
30
0
10
5.571378728970978
20
-17.178030955847873
30
0
10
6.236811728970971
20
-17.004897955847873
30
0
10
7.0334197289709746
20
-16.622322955847881
30
0
0
SPLINE
5
119
100
AcDbEntity
8
0
100
AcDbSpline
70
4
71
3
72
8
73
4
74
0
42
0.000000001
43
0.0000000001
44
0.0000000001
40
0
40
0
40
0
40
0
40
1
40
1
40
1
40
1
41
1
41
1
41
1
41
1
10
7.0334197289709746
20
-16.622322955847881
30
0
10
8.660781728970969
20
-15.840771955847877
30
0
10
9.875859728970962
20
-14.413095955847876
30
0
10
10.412283728970952
20
-12.652275955847889
30
0
0
SPLINE
5
120
100
AcDbEntity
8
0
100
AcDbSpline
70
4
71
3
72
8
73
4
74
0
42
0.000000001
43
0.0000000001
44
0.0000000001
40
0
40
0
40
0
40
0
40
1
40
1
40
1
40
1
41
1
41
1
41
1
41
1
10
10.412283728970952
20
-12.652275955847889
30
0
10
10.589484728970952
20
-12.070611955847891
30
0
10
10.593495728970957
20
-11.973348955847891
30
0
10
10.619637728970947
20
-7.6253862558479071
30
0
0
LINE
5
121
100
AcDbEntity
8
0
100
AcDbLine
10
10.619637728970947
20
-7.6253862558479071
30
0
11
10.646277728970951
21
-3.1916376558479156
31
0
0
LINE
5
122
100
AcDbEntity
8
0
100
AcDbLine
10
10.646277728970951
20
-3.1916376558479156
30
0
11
10.067070728970954
21
-3.6644874558479246
31
0
0
SPLINE
5
123
100
AcDbEntity
8
0
100
AcDbSpline
70
4
71
3
72
8
73
4
74
0
42
0.000000001
43
0.0000000001
44
0.0000000001
40
0
40
0
40
0
40
0
40
1
40
1
40
1
40
1
41
1
41
1
41
1
41
1
10
10.067070728970954
20
-3.6644874558479246
30
0
10
9.2489707289709528
20
-4.3323579558479262
30
0
10
8.8267477289709593
20
-4.6037586558479093
30
0
10
7.9938817289709698
20
-4.9971063558479178
30
0
0
SPLINE
5
124
100
AcDbEntity
8
0
100
AcDbSpline
70
4
71
3
72
8
73
4
74
0
42
0.000000001
43
0.0000000001
44
0.0000000001
40
0
40
0
40
0
40
0
40
1
40
1
40
1
40
1
41
1
41
1
41
1
41
1
10
7.9938817289709627
20
-4.9971063558479178
30
0
10
5.7556897289709621
20
-6.0541662558479121
30
0
10
3.0354847289709816
20
-6.0883734558479201
30
0
10
0.72814272897099186
20
-5.0884755558479133
30
0
0
SPLINE
5
125
100
AcDbEntity
8
0
100
AcDbSpline
70
4
71
3
72
8
73
4
74
0
42
0.000000001
43
0.0000000001
44
0.0000000001
40
0
40
0
40
0
40
0
40
1
40
1
40
1
40
1
41
1
41
1
41
1
41
1
10
0.72814272897099186
20
-5.0884755558479133
30
0
10
-0.75642227102900361
20
-4.4451171558479272
30
0
10
-2.2527412710289942
20
-3.1840158558479139
30
0
10
-3.1283572710289906
20
-1.8381882558479141
30
0
0
SPLINE
5
126
100
AcDbEntity
8
0
100
AcDbSpline
70
4
71
3
72
8
73
4
74
0
42
0.000000001
43
0.0000000001
44
0.0000000001
40
0
40
0
40
0
40
0
40
1
40
1
40
1
40
1
41
1
41
1
41
1
41
1
10
-3.1283572710289942
20
-1.8381882558479141
30
0
10
-3.7180132710289926
20
-0.93188435584794449
30
0
10
-4.2372322710289891
20
-0.64406585584792619
30
0
10
-4.9407742710289853
20
-0.83351105584793694
30
0
0
SPLINE
5
127
100
AcDbEntity
8
0
100
AcDbSpline
70
4
71
3
72
8
73
4
74
0
42
0.000000001
43
0.0000000001
44
0.0000000001
40
0
40
0
40
0
40
0
40
1
40
1
40
1
40
1
41
1
41
1
41
1
41
1
10
-4.9407742710289853
20
-0.83351105584793694
30
0
10
-5.4376612710289853
20
-0.96730775584792761
30
0
10
-5.6527042710289805
20
-1.1566671558479269
30
0
10
-6.140756271028982
20
-1.890166855847923
30
0
0
SPLINE
5
128
100
AcDbEntity
8
0
100
AcDbSpline
70
4
71
3
72
8
73
4
74
0
42
0.000000001
43
0.0000000001
44
0.0000000001
40
0
40
0
40
0
40
0
40
1
40
1
40
1
40
1
41
1
41
1
41
1
41
1
10
-18.829187271028939
20
-4.0369470558479144
30
0
10
-20.468465271028929
20
-2.8066488558479197
30
0
10
-21.569342271028923
20
-1.1537082558479239
30
0
10
-22.125797271028922
20
0.91283184415206109
30
0
0
SPLINE
5
129
100
AcDbEntity
8
0
100
AcDbSpline
70
4
71
3
72
8
73
4
74
0
42
0.000000001
43
0.0000000001
44
0.0000000001
40
0
40
0
40
0
40
0
40
1
40
1
40
1
40
1
41
1
41
1
41
1
41
1
10
-22.125797271028922
20
0.91283184415206109
30
0
10
-22.308965271028924
20
1.5930755441520581
30
0
10
-22.330418271028925
20
1.8183878441520469
30
0
10
-22.330418271028925
20
3.0618122441520566
30
0
0
SPLINE
5
130
100
AcDbEntity
8
0
100
AcDbSpline
70
4
71
3
72
8
73
4
74
0
42
0.000000001
43
0.0000000001
44
0.0000000001
40
0
40
0
40
0
40
0
40
1
40
1
40
1
40
1
41
1
41
1
41
1
41
1
10
-22.330418271028925
20
3.0618122441520566
30
0
10
-22.330418271028925
20
4.3052369441520515
30
0
10
-22.308968271028924
20
4.5305492441520538
30
0
10
-22.125797271028922
20
5.2107929441520504
30
0
0
SPLINE
5
131
100
AcDbEntity
8
0
100
AcDbSpline
70
4
71
3
72
8
73
4
74
0
42
0.000000001
43
0.0000000001
44
0.0000000001
40
0
40
0
40
0
40
0
40
1
40
1
40
1
40
1
41
1
41
1
41
1
41
1
10
-22.125797271028922
20
5.2107929441520504
30
0
10
-21.840647271028924
20
6.2697713441520433
30
0
10
-21.505307271028929
20
7.0366304441520295
30
0
10
-20.964383271028929
20
7.8667280441520315
30
0
0
SPLINE
5
132
100
AcDbEntity
8
0
100
AcDbSpline
70
4
71
3
72
8
73
4
74
0
42
0.000000001
43
0.0000000001
44
0.0000000001
40
0
40
0
40
0
40
0
40
1
40
1
40
1
40
1
41
1
41
1
41
1
41
1
10
-20.964383271028929
20
7.8667280441520315
30
0
10
-19.540658271028931
20
10.051562044152021
30
0
10
-17.259425271028942
20
11.514420844152022
30
0
10
-14.726708271028951
20
11.866689244152022
30
0
0
SPLINE
5
133
100
AcDbEntity
8
0
100
AcDbSpline
70
4
71
3
72
8
73
4
74
0
42
0.000000001
43
0.0000000001
44
0.0000000001
40
0
40
0
40
0
40
0
40
1
40
1
40
1
40
1
41
1
41
1
41
1
41
1
10
-14.726708271028951
20
11.866689244152022
30
0
10
-13.918229271028956
20
11.979138844152013
30
0
10
4.6504897289709755
20
11.98188504415203
30
0
10
5.439750728970977
20
11.869659244151997
30
0
0
SPLINE
5
134
100
AcDbEntity
8
0
100
AcDbSpline
70
4
71
3
72
8
73
4
74
0
42
0.000000001
43
0.0000000001
44
0.0000000001
40
0
40
0
40
0
40
0
40
1
40
1
40
1
40
1
41
1
41
1
41
1
41
1
10
5.4397507289709699
20
11.869659244152011
30
0
10
6.3567667289709648
20
11.739283144152029
30
0
10
7.2233557289709669
20
11.485282144152027
30
0
10
7.9938967289709586
20
11.121030244151997
30
0
0
SPLINE
5
135
100
AcDbEntity
8
0
100
AcDbSpline
70
4
71
3
72
8
73
4
74
0
42
0.000000001
43
0.0000000001
44
0.0000000001
40
0
40
0
40
0
40
0
40
1
40
1
40
1
40
1
41
1
41
1
41
1
41
1
10
7.9938967289709648
20
11.121030244152024
30
0
10
8.8260727289709582
20
10.727641144152027
30
0
10
9.2493937289709525
20
10.455611044152032
30
0
10
10.063344728970955
20
9.7911836441520208
30
0
0
LINE
5
136
100
AcDbEntity
8
0
100
AcDbLine
10
10.063344728970955
20
9.7911836441520208
30
0
11
10.638813728970945
21
9.3214289441520268
31
0
0
LINE
5
137
100
AcDbEntity
8
0
100
AcDbLine
10
10.638813728970945
20
9.3214289441520268
30
0
11
10.638813728970945
21
13.811627044152019
31
0
0
LINE
5
138
100
AcDbEntity
8
0
100
AcDbLine
10
10.638813728970945
20
13.811627044152019
30
0
11
10.638813728970945
21
18.301812544151996
31
0
0
SPLINE
5
139
100
AcDbEntity
8
0
100
AcDbSpline
70
4
71
3
72
8
73
4
74
0
42
0.000000001
43
0.0000000001
44
0.0000000001
40
0
40
0
40
0
40
0
40
1
40
1
40
1
40
1
41
1
41
1
41
1
41
1
10
-6.140756271028982
20
-1.890166855847923
30
0
10
-8.9458012710289694
20
-6.1058889558479184
30
0
10
-14.761433271028949
20
-7.0898469558479018
30
0
10
-18.829187271028932
20
-4.0369470558479144
30
0
0
LINE
5
140
100
AcDbEntity
8
0
100
AcDbLine
10
15.721926728970924
20
18.301812544151996
30
0
11
15.697746728970937
21
2.8832186441520564
31
0
0
SPLINE
5
141
100
AcDbEntity
8
0
100
AcDbSpline
70
4
71
3
72
8
73
4
74
0
42
0.000000001
43
0.0000000001
44
0.0000000001
40
0
40
0
40
0
40
0
40
1
40
1
40
1
40
1
41
1
41
1
41
1
41
1
10
15.697746728970937
20
2.8832186441520564
30
0
10
15.670776728970942
20
-14.305044955847887
30
0
10
15.722946728970935
20
-12.724539955847888
30
0
10
15.122889728970943
20
-14.531760955847886
30
0
0
SPLINE
5
142
100
AcDbEntity
8
0
100
AcDbSpline
70
4
71
3
72
8
73
4
74
0
42
0.000000001
43
0.0000000001
44
0.0000000001
40
0
40
0
40
0
40
0
40
1
40
1
40
1
40
1
41
1
41
1
41
1
41
1
10
10.353822728970957
20
-20.607666955847858
30
0
10
9.0916087289709608
20
-21.415863955847861
30
0
10
7.3110667289709665
20
-22.047303955847859
30
0
10
5.7175717289709684
20
-22.251834955847851
30
0
0
SPLINE
5
143
100
AcDbEntity
8
0
100
AcDbSpline
70
4
71
3
72
8
73
4
74
0
42
0.000000001
43
0.0000000001
44
0.0000000001
40
0
40
0
40
0
40
0
40
1
40
1
40
1
40
1
41
1
41
1
41
1
41
1
10
15.122889728970943
20
-14.531760955847886
30
0
10
14.303184728970946
20
-17.000469955847869
30
0
10
12.601470728970954
20
-19.168494955847862
30
0
10
10.353822728970957
20
-20.607666955847851
30
0
0
SPLINE
5
144
100
AcDbEntity
8
0
100
AcDbSpline
70
4
71
3
72
8
73
4
74
0
42
0.000000001
43
0.0000000001
44
0.0000000001
40
0
40
0
40
0
40
0
40
1
40
1
40
1
40
1
41
1
41
1
41
1
41
1
10
8.8718107289709582
20
7.3987361441520338
30
0
10
7.8841657289709657
20
8.4384692441520297
30
0
10
6.6030877289709657
20
9.1198775441520237
30
0
10
5.2413127289709696
20
9.3298052441520127
30
0
0
SPLINE
5
145
100
AcDbEntity
8
0
100
AcDbSpline
70
4
71
3
72
8
73
4
74
0
42
0.000000001
43
0.0000000001
44
0.0000000001
40
0
40
0
40
0
40
0
40
1
40
1
40
1
40
1
41
1
41
1
41
1
41
1
10
5.2413127289709696
20
9.3298052441520127
30
0
10
4.8076537289709762
20
9.3966581441520187
30
0
10
2.0272477289709858
20
9.414119944152036
30
0
10
-4.9980592710289855
20
9.3941141441520379
30
0
0
SPLINE
5
146
100
AcDbEntity
8
0
100
AcDbSpline
70
4
71
3
72
8
73
4
74
0
42
0.000000001
43
0.0000000001
44
0.0000000001
40
0
40
0
40
0
40
0
40
1
40
1
40
1
40
1
41
1
41
1
41
1
41
1
10
-4.9980592710289855
20
9.3941141441520379
30
0
10
-15.802718271028947
20
9.3633452441520255
30
0
10
-14.90859527102895
20
9.4128071441520209
30
0
10
-16.24346627102895
20
8.7720419441520363
30
0
0
SPLINE
5
147
100
AcDbEntity
8
0
100
AcDbSpline
70
4
71
3
72
8
73
4
74
0
42
0.000000001
43
0.0000000001
44
0.0000000001
40
0
40
0
40
0
40
0
40
1
40
1
40
1
40
1
41
1
41
1
41
1
41
1
10
-16.243466271028947
20
8.7720419441520363
30
0
10
-17.897411271028936
20
7.9781141441520242
30
0
10
-19.147541271028935
20
6.4665362441520529
30
0
10
-19.653107271028929
20
4.6493123441520563
30
0
0
SPLINE
5
148
100
AcDbEntity
8
0
100
AcDbSpline
70
4
71
3
72
8
73
4
74
0
42
0.000000001
43
0.0000000001
44
0.0000000001
40
0
40
0
40
0
40
0
40
1
40
1
40
1
40
1
41
1
41
1
41
1
41
1
10
-19.653107271028929
20
4.6493123441520563
30
0
10
-19.852682271028932
20
3.9319559441520449
30
0
10
-19.853681271028933
20
2.1979202441520567
30
0
10
-19.654907271028932
20
1.474312444152055
30
0
0
SPLINE
5
149
100
AcDbEntity
8
0
100
AcDbSpline
70
4
71
3
72
8
73
4
74
0
42
0.000000001
43
0.0000000001
44
0.0000000001
40
0
40
0
40
0
40
0
40
1
40
1
40
1
40
1
41
1
41
1
41
1
41
1
10
-19.654907271028932
20
1.474312444152055
30
0
10
-18.766796271028937
20
-1.7592384558479401
30
0
10
-15.57590927102895
20
-3.7907043558479114
30
0
10
-12.353432271028959
20
-3.1741425558479133
30
0
0
LINE
5
150
100
AcDbEntity
8
0
100
AcDbLine
10
-12.353432271028959
20
-3.1741425558479133
30
0
11
-12.353465271028959
21
-3.1741425558479133
31
0
0
SPLINE
5
151
100
AcDbEntity
8
0
100
AcDbSpline
70
4
71
3
72
8
73
4
74
0
42
0.000000001
43
0.0000000001
44
0.0000000001
40
0
40
0
40
0
40
0
40
1
40
1
40
1
40
1
41
1
41
1
41
1
41
1
10
-12.353465271028959
20
-3.1741425558479133
30
0
10
-10.652345271028967
20
-2.8486644558479268
30
0
10
-9.1249192710289684
20
-1.8132396558479269
30
0
10
-8.1390442710289719
20
-0.31723385584793429
30
0
0
SPLINE
5
152
100
AcDbEntity
8
0
100
AcDbSpline
70
4
71
3
72
8
73
4
74
0
42
0.000000001
43
0.0000000001
44
0.0000000001
40
0
40
0
40
0
40
0
40
1
40
1
40
1
40
1
41
1
41
1
41
1
41
1
10
-8.1390442710289719
20
-0.31723385584793429
30
0
10
-7.9068562710289765
20
0.035100844152047839
30
0
10
-7.5330562710289781
20
0.49513914415206139
30
0
10
-7.3083802710289758
20
0.70507344415205064
30
0
0
SPLINE
5
153
100
AcDbEntity
8
0
100
AcDbSpline
70
4
71
3
72
8
73
4
74
0
42
0.000000001
43
0.0000000001
44
0.0000000001
40
0
40
0
40
0
40
0
40
1
40
1
40
1
40
1
41
1
41
1
41
1
41
1
10
-7.3083802710289802
20
0.70507344415205064
30
0
10
-6.4861402710289813
20
1.4733677441520543
30
0
10
-5.169638271028985
20
1.8856694441520574
30
0
10
-4.0895932710289964
20
1.7131319441520483
30
0
0
SPLINE
5
154
100
AcDbEntity
8
0
100
AcDbSpline
70
4
71
3
72
8
73
4
74
0
42
0.000000001
43
0.0000000001
44
0.0000000001
40
0
40
0
40
0
40
0
40
1
40
1
40
1
40
1
41
1
41
1
41
1
41
1
10
-4.0895932710289893
20
1.7131319441520483
30
0
10
-2.7897532710289941
20
1.5054812441520493
30
0
10
-1.9344772710289992
20
0.95369874415205502
30
0
10
-1.2174352710289948
20
-0.13983935584794716
30
0
0
SPLINE
5
155
100
AcDbEntity
8
0
100
AcDbSpline
70
4
71
3
72
8
73
4
74
0
42
0.000000001
43
0.0000000001
44
0.0000000001
40
0
40
0
40
0
40
0
40
1
40
1
40
1
40
1
41
1
41
1
41
1
41
1
10
-1.2174352710290015
20
-0.13983935584794716
30
0
10
-0.65360927102900312
20
-0.9997182558479295
30
0
10
-0.33177227102900386
20
-1.3660149558479233
30
0
10
0.30622272897099401
20
-1.8739902558479145
30
0
0
SPLINE
5
156
100
AcDbEntity
8
0
100
AcDbSpline
70
4
71
3
72
8
73
4
74
0
42
0.000000001
43
0.0000000001
44
0.0000000001
40
0
40
0
40
0
40
0
40
1
40
1
40
1
40
1
41
1
41
1
41
1
41
1
10
0.30622272897099068
20
-1.8739902558479145
30
0
10
2.9161567289709831
20
-3.9520356558479208
30
0
10
6.5702257289709696
20
-3.6980817558479262
30
0
10
8.8681687289709501
20
-1.2789429558479382
30
0
0
SPLINE
5
157
100
AcDbEntity
8
0
100
AcDbSpline
70
4
71
3
72
8
73
4
74
0
42
0.000000001
43
0.0000000001
44
0.0000000001
40
0
40
0
40
0
40
0
40
1
40
1
40
1
40
1
41
1
41
1
41
1
41
1
10
10.284261728970954
20
5.0900546441520476
30
0
10
9.9994807289709513
20
5.9445170441520423
30
0
10
9.5404177289709544
20
6.6948665441520312
30
0
10
8.8718107289709582
20
7.3987361441520338
30
0
0
SPLINE
5
158
100
AcDbEntity
8
0
100
AcDbSpline
70
4
71
3
72
8
73
4
74
0
42
0.000000001
43
0.0000000001
44
0.0000000001
40
0
40
0
40
0
40
0
40
1
40
1
40
1
40
1
41
1
41
1
41
1
41
1
10
8.8681687289709572
20
-1.2789429558479382
30
0
10
10.51249872897095
20
0.45210924415206355
30
0
10
11.039724728970949
20
2.823350944152045
30
0
10
10.284261728970954
20
5.0900546441520476
30
0
0
LINE
5
159
100
AcDbEntity
8
0
100
AcDbLine
10
10.638813728970945
20
18.301812544151996
30
0
11
15.721926728970924
21
18.301812544151996
31
0
0
LINE
5
160
100
AcDbEntity
8
0
100
AcDbLine
10
2.8203787289709812
20
-22.247919955847848
30
0
11
5.7175717289709684
21
-22.251834955847851
31
0
0
SPLINE
5
161
100
AcDbEntity
8
0
100
AcDbSpline
70
4
71
3
72
8
73
4
74
0
42
0.000000001
43
0.0000000001
44
0.0000000001
40
0.99992918888720983
40
0.99992918888720983
40
0.99992918888720983
40
0.99992918888720983
40
1
40
1
40
1
40
1
41
1
41
1
41
1
41
1
10
2.8204506659710047
20
-22.247920053131914
30
0
10
2.8204267140001313
20
-22.247917020761783
30
0
10
2.8204027350003855
20
-22.247913988333757
30
0
10
2.8203787289709812
20
-22.24791095584786
30
0
0
CIRCLE
5
162
100
AcDbEntity
8
0
100
AcDbCircle
10
0
20
0
30
0
40
25
210
0
220
0
230
1
0
ENDSEC
0
SECTION
2
OBJECTS
0
DICTIONARY
5
C
100
AcDbDictionary
3
ACAD_GROUP
350
D
3
ACAD_MLINESTYLE
350
17
0
DICTIONARY
5
D
100
AcDbDictionary
0
DICTIONARY
5
1A
330
C
100
AcDbDictionary
0
DICTIONARY
5
17
100
AcDbDictionary
0
ENDSEC
0
EOF
