0
SECTION
2
HEADER
9
$INSUNITS
70
4
9
$ACADVER
1
AC1014
9
$HANDSEED
5
FFFF
0
ENDSEC
0
SECTION
2
TABLES
0
TABLE
2
VPORT
5
8
100
AcDbSymbolTable
0
ENDTAB
0
TABLE
2
LTYPE
5
5
100
AcDbSymbolTable
0
LTYPE
5
14
100
AcDbSymbolTableRecord
100
AcDbLinetypeTableRecord
2
BYBLOCK
70
0
0
LTYPE
5
15
100
AcDbSymbolTableRecord
100
AcDbLinetypeTableRecord
2
BYLAYER
70
0
0
ENDTAB
0
TABLE
2
LAYER
5
2
100
AcDbSymbolTable
70
2
0
LAYER
5
50
100
AcDbSymbolTableRecord
100
AcDbLayerTableRecord
2
0
70
0
6
CONTINUOUS
0
ENDTAB
0
TABLE
2
STYLE
5
3
100
AcDbSymbolTable
70
1
0
STYLE
5
11
100
AcDbSymbolTableRecord
100
AcDbTextStyleTableRecord
2
STANDARD
70
0
0
ENDTAB
0
TABLE
2
VIEW
5
6
100
AcDbSymbolTable
70
0
0
ENDTAB
0
TABLE
2
UCS
5
7
100
AcDbSymbolTable
70
0
0
ENDTAB
0
TABLE
2
APPID
5
9
100
AcDbSymbolTable
70
2
0
APPID
5
12
100
AcDbSymbolTableRecord
100
AcDbRegAppTableRecord
2
ACAD
70
0
0
ENDTAB
0
TABLE
2
DIMSTYLE
5
A
100
AcDbSymbolTable
70
1
0
ENDTAB
0
TABLE
2
BLOCK_RECORD
5
1
100
AcDbSymbolTable
70
1
0
BLOCK_RECORD
5
1F
100
AcDbSymbolTableRecord
100
AcDbBlockTableRecord
2
*MODEL_SPACE
0
BLOCK_RECORD
5
1B
100
AcDbSymbolTableRecord
100
AcDbBlockTableRecord
2
*PAPER_SPACE
0
ENDTAB
0
ENDSEC
0
SECTION
2
BLOCKS
0
BLOCK
5
20
100
AcDbEntity
100
AcDbBlockBegin
2
*MODEL_SPACE
0
ENDBLK
5
21
100
AcDbEntity
100
AcDbBlockEnd
0
BLOCK
5
1C
100
AcDbEntity
100
AcDbBlockBegin
2
*PAPER_SPACE
0
ENDBLK
5
1D
100
AcDbEntity
100
AcDbBlockEnd
0
ENDSEC
0
SECTION
2
ENTITIES
0
SPLINE
5
100
100
AcDbEntity
8
0
100
AcDbSpline
70
4
71
3
72
8
73
4
74
0
42
0.000000001
43
0.0000000001
44
0.0000000001
40
0
40
0
40
0
40
0
40
1
40
1
40
1
40
1
41
1
41
1
41
1
41
1
10
-1.9556491951991763
20
-15.474398952867539
30
0
10
0.97261806980081811
20
-15.371176140867536
30
0
10
1.6381333048008206
20
-15.360310593867538
30
0
10
3.83840830480082
20
-15.373892546867536
30
0
0
SPLINE
5
101
100
AcDbEntity
8
0
100
AcDbSpline
70
4
71
3
72
8
73
4
74
0
42
0.000000001
43
0.0000000001
44
0.0000000001
40
0
40
0
40
0
40
0
40
1
40
1
40
1
40
1
41
1
41
1
41
1
41
1
10
3.83840830480082
20
-15.373892546867536
30
0
10
6.3945302578008221
20
-15.390190828867539
30
0
10
7.6467855698008158
20
-15.444518640867539
30
0
10
9.5292430698008133
20
-15.612934734867538
30
0
0
SPLINE
5
102
100
AcDbEntity
8
0
100
AcDbSpline
70
4
71
3
72
8
73
4
74
0
42
0.000000001
43
0.0000000001
44
0.0000000001
40
0
40
0
40
0
40
0
40
1
40
1
40
1
40
1
41
1
41
1
41
1
41
1
10
9.5292430698008133
20
-15.612934734867538
30
0
10
10.175743616800814
20
-15.669978952867538
30
0
10
10.34415971080081
20
-15.66997895286754
30
0
10
11.240568069800812
20
-15.593920046867538
30
0
0
SPLINE
5
103
100
AcDbEntity
8
0
100
AcDbSpline
70
4
71
3
72
8
73
4
74
0
42
0.000000001
43
0.0000000001
44
0.0000000001
40
0
40
0
40
0
40
0
40
1
40
1
40
1
40
1
41
1
41
1
41
1
41
1
10
11.240568069800812
20
-15.593920046867538
30
0
10
14.758291663800819
20
-15.30598278186754
30
0
10
16.363677522800813
20
-14.368828640867541
30
0
10
17.406770804800814
20
-11.997421140867541
30
0
0
SPLINE
5
104
100
AcDbEntity
8
0
100
AcDbSpline
70
4
71
3
72
8
73
4
74
0
42
0.000000001
43
0.0000000001
44
0.0000000001
40
0
40
0
40
0
40
0
40
1
40
1
40
1
40
1
41
1
41
1
41
1
41
1
10
17.406770804800814
20
-11.997421140867541
30
0
10
17.466531351800811
20
-11.86431809386754
30
0
10
17.567037757800811
20
-11.68232004686754
30
0
10
17.634947522800807
20
-11.589962781867539
30
0
0
SPLINE
5
105
100
AcDbEntity
8
0
100
AcDbSpline
70
4
71
3
72
8
73
4
74
0
42
0.000000001
43
0.0000000001
44
0.0000000001
40
0
40
0
40
0
40
0
40
1
40
1
40
1
40
1
41
1
41
1
41
1
41
1
10
17.634947522800807
20
-11.589962781867539
30
0
10
17.778916116800808
20
-11.397099187867541
30
0
10
17.868556975800811
20
-11.171638952867543
30
0
10
17.868556975800811
20
-11.01137199986754
30
0
0
SPLINE
5
106
100
AcDbEntity
8
0
100
AcDbSpline
70
4
71
3
72
8
73
4
74
0
42
0.000000001
43
0.0000000001
44
0.0000000001
40
0
40
0
40
0
40
0
40
1
40
1
40
1
40
1
41
1
41
1
41
1
41
1
10
17.868556975800811
20
-11.01137199986754
30
0
10
17.868556975800811
20
-10.785911687867539
30
0
10
17.672976975800804
20
-10.506123640867543
30
0
10
17.431218304800815
20
-10.381169734867541
30
0
0
SPLINE
5
107
100
AcDbEntity
8
0
100
AcDbSpline
70
4
71
3
72
8
73
4
74
0
42
0.000000001
43
0.0000000001
44
0.0000000001
40
0
40
0
40
0
40
0
40
1
40
1
40
1
40
1
41
1
41
1
41
1
41
1
10
17.431218304800815
20
-10.381169734867541
30
0
10
17.162295804800813
20
-10.239917546867542
30
0
10
16.521228069800816
20
-10.076934187867542
30
0
10
16.366393851800815
20
-10.106814499867543
30
0
0
SPLINE
5
108
100
AcDbEntity
8
0
100
AcDbSpline
70
4
71
3
72
8
73
4
74
0
42
0.000000001
43
0.0000000001
44
0.0000000001
40
0
40
0
40
0
40
0
40
1
40
1
40
1
40
1
41
1
41
1
41
1
41
1
10
16.366393851800815
20
-10.106814499867543
30
0
10
16.320215257800808
20
-10.11496364086754
30
0
10
16.15994830480081
20
-10.180156999867542
30
0
10
16.010546975800818
20
-10.24806668786754
30
0
0
SPLINE
5
109
100
AcDbEntity
8
0
100
AcDbSpline
70
4
71
3
72
8
73
4
74
0
42
0.000000001
43
0.0000000001
44
0.0000000001
40
0
40
0
40
0
40
0
40
1
40
1
40
1
40
1
41
1
41
1
41
1
41
1
10
16.010546975800818
20
-10.24806668786754
30
0
10
15.703595022800814
20
-10.389318952867544
30
0
10
15.263540022800816
20
-10.511556452867543
30
0
10
14.88867830480082
20
-10.555018640867541
30
0
0
SPLINE
5
110
100
AcDbEntity
8
0
100
AcDbSpline
70
4
71
3
72
8
73
4
74
0
42
0.000000001
43
0.0000000001
44
0.0000000001
40
0
40
0
40
0
40
0
40
1
40
1
40
1
40
1
41
1
41
1
41
1
41
1
10
14.88867830480082
20
-10.555018640867541
30
0
10
13.810271975800816
20
-10.685405281867542
30
0
10
12.207602522800816
20
-10.56860059386754
30
0
10
9.9258358048008155
20
-10.19102254686754
30
0
0
SPLINE
5
111
100
AcDbEntity
8
0
100
AcDbSpline
70
4
71
3
72
8
73
4
74
0
42
0.000000001
43
0.0000000001
44
0.0000000001
40
0
40
0
40
0
40
0
40
1
40
1
40
1
40
1
41
1
41
1
41
1
41
1
10
9.9258358048008155
20
-10.19102254686754
30
0
10
9.4260202578008148
20
-10.106814499867539
30
0
10
8.1656158048008223
20
-9.8786377818675408
30
0
10
8.1547502578008206
20
-9.867772234867541
30
0
0
SPLINE
5
112
100
AcDbEntity
8
0
100
AcDbSpline
70
4
71
3
72
8
73
4
74
0
42
0.000000001
43
0.0000000001
44
0.0000000001
40
0
40
0
40
0
40
0
40
1
40
1
40
1
40
1
41
1
41
1
41
1
41
1
10
8.1547502578008206
20
-9.867772234867541
30
0
10
8.1520338518008177
20
-9.867772234867541
30
0
10
8.1357355698008149
20
-9.742818328867541
30
0
10
8.1194372108008146
20
-9.5934169998675394
30
0
0
SPLINE
5
113
100
AcDbEntity
8
0
100
AcDbSpline
70
4
71
3
72
8
73
4
74
0
42
0.000000001
43
0.0000000001
44
0.0000000001
40
0
40
0
40
0
40
0
40
1
40
1
40
1
40
1
41
1
41
1
41
1
41
1
10
8.1194372108008146
20
-9.5934169998675394
30
0
10
8.1031388518008214
20
-9.4440155938675385
30
0
10
7.9917669758008172
20
-8.4199369998675415
30
0
10
7.8722458048008201
20
-7.3170830938675415
30
0
0
SPLINE
5
114
100
AcDbEntity
8
0
100
AcDbSpline
70
4
71
3
72
8
73
4
74
0
42
0.000000001
43
0.0000000001
44
0.0000000001
40
0
40
0
40
0
40
0
40
1
40
1
40
1
40
1
41
1
41
1
41
1
41
1
10
7.8722458048008201
20
-7.3170830938675415
30
0
10
7.7527247108008162
20
-6.2169455938675409
30
0
10
7.5571447108008138
20
-4.4186961408675405
30
0
10
7.4376236168008187
20
-3.3239914528675421
30
0
0
SPLINE
5
115
100
AcDbEntity
8
0
100
AcDbSpline
70
4
71
3
72
8
73
4
74
0
42
0.000000001
43
0.0000000001
44
0.0000000001
40
0
40
0
40
0
40
0
40
1
40
1
40
1
40
1
41
1
41
1
41
1
41
1
10
7.4376236168008187
20
-3.3239914528675421
30
0
10
7.3181025228008192
20
-2.2320030938675446
30
0
10
7.1252388518008196
20
-0.43647004686754426
30
0
10
7.0057177578008192
20
0.66095104713245811
30
0
0
SPLINE
5
116
100
AcDbEntity
8
0
100
AcDbSpline
70
4
71
3
72
8
73
4
74
0
42
0.000000001
43
0.0000000001
44
0.0000000001
40
0
40
0
40
0
40
0
40
1
40
1
40
1
40
1
41
1
41
1
41
1
41
1
10
7.0057177578008192
20
0.66095104713245811
30
0
10
6.8861966638008187
20
1.7583722181324521
30
0
10
6.6906166638008226
20
3.5566216711324534
30
0
10
6.5710955698008178
20
4.6540427651324503
30
0
0
SPLINE
5
117
100
AcDbEntity
8
0
100
AcDbSpline
70
4
71
3
72
8
73
4
74
0
42
0.000000001
43
0.0000000001
44
0.0000000001
40
0
40
0
40
0
40
0
40
1
40
1
40
1
40
1
41
1
41
1
41
1
41
1
10
6.5710955698008178
20
4.6540427651324503
30
0
10
6.4515744758008218
20
5.7514638591324534
30
0
10
6.2532780698008228
20
7.555146047132447
30
0
10
6.1337569758008224
20
8.6607163591324507
30
0
0
SPLINE
5
118
100
AcDbEntity
8
0
100
AcDbSpline
70
4
71
3
72
8
73
4
74
0
42
0.000000001
43
0.0000000001
44
0.0000000001
40
0
40
0
40
0
40
0
40
1
40
1
40
1
40
1
41
1
41
1
41
1
41
1
10
6.1337569758008224
20
8.6607163591324507
30
0
10
6.0142358048008262
20
9.7662866711324519
30
0
10
5.8811327578008257
20
10.980512453132452
30
0
10
5.8403869758008211
20
11.355374171132446
30
0
0
LINE
5
119
100
AcDbEntity
8
0
100
AcDbLine
10
5.8403869758008211
20
11.355374171132446
30
0
11
5.7643280698008237
21
12.042620500132443
31
0
0
LINE
5
120
100
AcDbEntity
8
0
100
AcDbLine
10
5.7643280698008237
20
12.042620500132443
30
0
11
5.8485361168008243
21
12.053486047132447
31
0
0
SPLINE
5
121
100
AcDbEntity
8
0
100
AcDbSpline
70
4
71
3
72
8
73
4
74
0
42
0.000000001
43
0.0000000001
44
0.0000000001
40
0
40
0
40
0
40
0
40
1
40
1
40
1
40
1
41
1
41
1
41
1
41
1
10
5.8485361168008243
20
12.053486047132447
30
0
10
6.1745027578008269
20
12.10509745313245
30
0
10
7.1524027578008251
20
12.080649953132447
30
0
10
7.5299808048008279
20
12.015456671132441
30
0
0
SPLINE
5
122
100
AcDbEntity
8
0
100
AcDbSpline
70
4
71
3
72
8
73
4
74
0
42
0.000000001
43
0.0000000001
44
0.0000000001
40
0
40
0
40
0
40
0
40
1
40
1
40
1
40
1
41
1
41
1
41
1
41
1
10
7.5299808048008279
20
12.015456671132441
30
0
10
8.127586351800824
20
11.909517453132448
30
0
10
8.4861497108008201
20
11.727519406132448
30
0
10
9.2304402578008187
20
11.146212218132449
30
0
0
SPLINE
5
123
100
AcDbEntity
8
0
100
AcDbSpline
70
4
71
3
72
8
73
4
74
0
42
0.000000001
43
0.0000000001
44
0.0000000001
40
0
40
0
40
0
40
0
40
1
40
1
40
1
40
1
41
1
41
1
41
1
41
1
10
9.2304402578008187
20
11.146212218132449
30
0
10
9.993745569800824
20
10.551323000132447
30
0
10
10.49084471080082
20
10.274251359132446
30
0
10
11.292179475800818
20
9.9998960471324452
30
0
0
SPLINE
5
124
100
AcDbEntity
8
0
100
AcDbSpline
70
4
71
3
72
8
73
4
74
0
42
0.000000001
43
0.0000000001
44
0.0000000001
40
0
40
0
40
0
40
0
40
1
40
1
40
1
40
1
41
1
41
1
41
1
41
1
10
11.292179475800818
20
9.9998960471324452
30
0
10
11.561101975800819
20
9.9075388591324511
30
0
10
12.490106975800821
20
9.6494819061324506
30
0
10
12.490106975800821
20
9.668496671132452
30
0
0
SPLINE
5
125
100
AcDbEntity
8
0
100
AcDbSpline
70
4
71
3
72
8
73
4
74
0
42
0.000000001
43
0.0000000001
44
0.0000000001
40
0
40
0
40
0
40
0
40
1
40
1
40
1
40
1
41
1
41
1
41
1
41
1
10
12.490106975800821
20
9.668496671132452
30
0
10
12.490106975800821
20
9.6712130001324486
30
0
10
12.357003851800819
20
9.9048224531324536
30
0
10
12.196736975800819
20
10.184610500132445
30
0
0
SPLINE
5
126
100
AcDbEntity
8
0
100
AcDbSpline
70
4
71
3
72
8
73
4
74
0
42
0.000000001
43
0.0000000001
44
0.0000000001
40
0
40
0
40
0
40
0
40
1
40
1
40
1
40
1
41
1
41
1
41
1
41
1
10
12.196736975800819
20
10.184610500132445
30
0
10
12.033753616800817
20
10.467114953132446
30
0
10
11.656175569800816
20
11.157077765132442
30
0
10
11.357372757800821
20
11.719370265132438
30
0
0
SPLINE
5
127
100
AcDbEntity
8
0
100
AcDbSpline
70
4
71
3
72
8
73
4
74
0
42
0.000000001
43
0.0000000001
44
0.0000000001
40
0
40
0
40
0
40
0
40
1
40
1
40
1
40
1
41
1
41
1
41
1
41
1
10
11.357372757800821
20
11.719370265132438
30
0
10
10.539739710800815
20
13.243264406132448
30
0
10
10.192041975800819
20
13.824571671132448
30
0
10
9.6677788518008185
20
14.525399953132451
30
0
0
SPLINE
5
128
100
AcDbEntity
8
0
100
AcDbSpline
70
4
71
3
72
8
73
4
74
0
42
0.000000001
43
0.0000000001
44
0.0000000001
40
0
40
0
40
0
40
0
40
1
40
1
40
1
40
1
41
1
41
1
41
1
41
1
10
9.6677788518008185
20
14.525399953132451
30
0
10
9.3445286168008224
20
14.954589406132452
30
0
10
9.2087091638008189
20
15.114856359132453
30
0
10
8.8121163518008192
20
15.516881906132445
30
0
0
SPLINE
5
129
100
AcDbEntity
8
0
100
AcDbSpline
70
4
71
3
72
8
73
4
74
0
42
0.000000001
43
0.0000000001
44
0.0000000001
40
0
40
0
40
0
40
0
40
1
40
1
40
1
40
1
41
1
41
1
41
1
41
1
10
8.8121163518008192
20
15.516881906132445
30
0
10
7.9646030698008206
20
16.380693547132445
30
0
10
7.5001005698008196
20
16.690361906132448
30
0
10
6.7177805698008228
20
16.918538547132457
30
0
0
SPLINE
5
130
100
AcDbEntity
8
0
100
AcDbSpline
70
4
71
3
72
8
73
4
74
0
42
0.000000001
43
0.0000000001
44
0.0000000001
40
0
40
0
40
0
40
0
40
1
40
1
40
1
40
1
41
1
41
1
41
1
41
1
10
6.7177805698008228
20
16.918538547132457
30
0
10
6.1527716638008236
20
17.081521906132451
30
0
10
5.2998255698008183
20
17.157580812132448
30
0
10
4.7483986168008254
20
17.09510385913245
30
0
0
SPLINE
5
131
100
AcDbEntity
8
0
100
AcDbSpline
70
4
71
3
72
8
73
4
74
0
42
0.000000001
43
0.0000000001
44
0.0000000001
40
0
40
0
40
0
40
0
40
1
40
1
40
1
40
1
41
1
41
1
41
1
41
1
10
4.7483986168008254
20
17.09510385913245
30
0
10
3.803095257800825
20
16.986448312132445
30
0
10
2.9257016638008264
20
16.627884953132458
30
0
10
2.1270833048008266
20
16.027563000132453
30
0
0
SPLINE
5
132
100
AcDbEntity
8
0
100
AcDbSpline
70
4
71
3
72
8
73
4
74
0
42
0.000000001
43
0.0000000001
44
0.0000000001
40
0
40
0
40
0
40
0
40
1
40
1
40
1
40
1
41
1
41
1
41
1
41
1
10
2.1270833048008266
20
16.027563000132453
30
0
10
1.8418625228008247
20
15.810251906132446
30
0
10
1.1872127578008276
20
15.155602218132456
30
0
10
0.83679861680082401
20
14.731845500132454
30
0
0
SPLINE
5
133
100
AcDbEntity
8
0
100
AcDbSpline
70
4
71
3
72
8
73
4
74
0
42
0.000000001
43
0.0000000001
44
0.0000000001
40
0
40
0
40
0
40
0
40
1
40
1
40
1
40
1
41
1
41
1
41
1
41
1
10
0.83679861680082401
20
14.731845500132454
30
0
10
-0.34483052419917609
20
13.305741359132451
30
0
10
-1.5264597421991728
20
11.379821671132451
30
0
10
-2.8792213831991784
20
8.6742983121324553
30
0
0
SPLINE
5
134
100
AcDbEntity
8
0
100
AcDbSpline
70
4
71
3
72
8
73
4
74
0
42
0.000000001
43
0.0000000001
44
0.0000000001
40
0
40
0
40
0
40
0
40
1
40
1
40
1
40
1
41
1
41
1
41
1
41
1
10
-2.8792213831991784
20
8.6742983121324553
30
0
10
-4.1667897421991746
20
6.0991616711324523
30
0
10
-5.4190449771991744
20
3.1953419061324535
30
0
10
-6.7066133361991742
20
-0.20829332886753996
30
0
0
SPLINE
5
135
100
AcDbEntity
8
0
100
AcDbSpline
70
4
71
3
72
8
73
4
74
0
42
0.000000001
43
0.0000000001
44
0.0000000001
40
0
40
0
40
0
40
0
40
1
40
1
40
1
40
1
41
1
41
1
41
1
41
1
10
-6.7066133361991742
20
-0.20829332886753996
30
0
10
-6.8342836481991736
20
-0.54512559386754211
30
0
10
-7.005416148199175
20
-0.99604614086754262
30
0
10
-7.0869077891991736
20
-1.2133572348675408
30
0
0
SPLINE
5
136
100
AcDbEntity
8
0
100
AcDbSpline
70
4
71
3
72
8
73
4
74
0
42
0.000000001
43
0.0000000001
44
0.0000000001
40
0
40
0
40
0
40
0
40
1
40
1
40
1
40
1
41
1
41
1
41
1
41
1
10
-7.0869077891991736
20
-1.2133572348675408
30
0
10
-7.518813648199175
20
-2.3596733288675411
30
0
10
-8.1625977891991752
20
-4.176937546867542
30
0
10
-8.7357558361991732
20
-5.8638150468675407
30
0
0
LINE
5
137
100
AcDbEntity
8
0
100
AcDbLine
10
-8.7357558361991732
20
-5.8638150468675407
30
0
11
-9.1459305241991746
21
-7.0807572348675407
31
0
0
LINE
5
138
100
AcDbEntity
8
0
100
AcDbLine
10
-9.1459305241991746
20
-7.0807572348675407
30
0
11
-9.488195524199174
21
-7.0807572348675407
31
0
0
SPLINE
5
139
100
AcDbEntity
8
0
100
AcDbSpline
70
4
71
3
72
8
73
4
74
0
42
0.000000001
43
0.0000000001
44
0.0000000001
40
0
40
0
40
0
40
0
40
1
40
1
40
1
40
1
41
1
41
1
41
1
41
1
10
-9.488195524199174
20
-7.0807572348675407
30
0
10
-9.9961602891991763
20
-7.0807572348675407
30
0
10
-10.868121148199174
20
-7.1296522348675397
30
0
10
-11.471159430199174
20
-7.1894127818675404
30
0
0
SPLINE
5
140
100
AcDbEntity
8
0
100
AcDbSpline
70
4
71
3
72
8
73
4
74
0
42
0.000000001
43
0.0000000001
44
0.0000000001
40
0
40
0
40
0
40
0
40
1
40
1
40
1
40
1
41
1
41
1
41
1
41
1
10
-11.471159430199174
20
-7.1894127818675404
30
0
10
-13.464988883199174
20
-7.3904255938675387
30
0
10
-14.907391383199171
20
-7.9174050468675379
30
0
10
-15.898873336199173
20
-8.8110969998675408
30
0
0
SPLINE
5
141
100
AcDbEntity
8
0
100
AcDbSpline
70
4
71
3
72
8
73
4
74
0
42
0.000000001
43
0.0000000001
44
0.0000000001
40
0
40
0
40
0
40
0
40
1
40
1
40
1
40
1
41
1
41
1
41
1
41
1
10
-15.898873336199173
20
-8.8110969998675408
30
0
10
-16.366092242199169
20
-9.2321372348675386
30
0
10
-16.675760524199173
20
-9.6477447348675369
30
0
10
-16.822445524199171
20
-10.057919499867538
30
0
0
SPLINE
5
142
100
AcDbEntity
8
0
100
AcDbSpline
70
4
71
3
72
8
73
4
74
0
42
0.000000001
43
0.0000000001
44
0.0000000001
40
0
40
0
40
0
40
0
40
1
40
1
40
1
40
1
41
1
41
1
41
1
41
1
10
-16.822445524199171
20
-10.057919499867538
30
0
10
-16.898504430199171
20
-10.261648640867538
30
0
10
-16.906653648199171
20
-10.701703640867537
30
0
10
-16.841460289199173
20
-10.875552546867537
30
0
0
SPLINE
5
143
100
AcDbEntity
8
0
100
AcDbSpline
70
4
71
3
72
8
73
4
74
0
42
0.000000001
43
0.0000000001
44
0.0000000001
40
0
40
0
40
0
40
0
40
1
40
1
40
1
40
1
41
1
41
1
41
1
41
1
10
-16.841460289199173
20
-10.875552546867537
30
0
10
-16.808863648199171
20
-10.965193328867537
30
0
10
-16.806147242199174
20
-11.02223754686754
30
0
10
-16.825161930199172
20
-11.147191452867538
30
0
0
SPLINE
5
144
100
AcDbEntity
8
0
100
AcDbSpline
70
4
71
3
72
8
73
4
74
0
42
0.000000001
43
0.0000000001
44
0.0000000001
40
0
40
0
40
0
40
0
40
1
40
1
40
1
40
1
41
1
41
1
41
1
41
1
10
-16.825161930199172
20
-11.147191452867538
30
0
10
-16.865907789199174
20
-11.383517234867536
30
0
10
-16.833311148199172
20
-11.921362234867537
30
0
10
-16.765401383199169
20
-12.154971687867535
30
0
0
SPLINE
5
145
100
AcDbEntity
8
0
100
AcDbSpline
70
4
71
3
72
8
73
4
74
0
42
0.000000001
43
0.0000000001
44
0.0000000001
40
0
40
0
40
0
40
0
40
1
40
1
40
1
40
1
41
1
41
1
41
1
41
1
10
-16.765401383199169
20
-12.154971687867535
30
0
10
-16.654029430199174
20
-12.551564499867535
30
0
10
-16.47203138319917
20
-12.834068952867536
30
0
10
-16.097169742199171
20
-13.195348640867536
30
0
0
SPLINE
5
146
100
AcDbEntity
8
0
100
AcDbSpline
70
4
71
3
72
8
73
4
74
0
42
0.000000001
43
0.0000000001
44
0.0000000001
40
0
40
0
40
0
40
0
40
1
40
1
40
1
40
1
41
1
41
1
41
1
41
1
10
-16.097169742199171
20
-13.195348640867536
30
0
10
-15.418072477199171
20
-13.844565593867538
30
0
10
-14.643901695199176
20
-14.235725593867539
30
0
10
-13.152604195199174
20
-14.681213328867537
30
0
0
SPLINE
5
147
100
AcDbEntity
8
0
100
AcDbSpline
70
4
71
3
72
8
73
4
74
0
42
0.000000001
43
0.0000000001
44
0.0000000001
40
0
40
0
40
0
40
0
40
1
40
1
40
1
40
1
41
1
41
1
41
1
41
1
10
-8.1137027891991753
20
-15.504279187867535
30
0
10
-7.0135652891991764
20
-15.574905281867535
30
0
10
-4.5090547421991776
20
-15.564039734867537
30
0
10
-1.9556491951991763
20
-15.474398952867539
30
0
0
SPLINE
5
148
100
AcDbEntity
8
0
100
AcDbSpline
70
4
71
3
72
8
73
4
74
0
42
0.000000001
43
0.0000000001
44
0.0000000001
40
0
40
0
40
0
40
0
40
1
40
1
40
1
40
1
41
1
41
1
41
1
41
1
10
-13.152604195199174
20
-14.681213328867537
30
0
10
-11.745514742199175
20
-15.102253640867536
30
0
10
-10.096666695199177
20
-15.371176140867535
30
0
10
-8.1137027891991753
20
-15.504279187867535
30
0
0
CIRCLE
5
149
100
AcDbEntity
8
0
100
AcDbCircle
10
0
20
0
30
0
40
25
210
0
220
0
230
1
0
ENDSEC
0
SECTION
2
OBJECTS
0
DICTIONARY
5
C
100
AcDbDictionary
3
ACAD_GROUP
350
D
3
ACAD_MLINESTYLE
350
17
0
DICTIONARY
5
D
100
AcDbDictionary
0
DICTIONARY
5
1A
330
C
100
AcDbDictionary
0
DICTIONARY
5
17
100
AcDbDictionary
0
ENDSEC
0
EOF
