  0
SECTION
  2
HEADER
  9
$ACADVER
  1
AC1009
  9
$EXTMAX
 10
25.0
 20
25.0
 30
0.0
  9
$EXTMIN
 10
-25.0
 20
-25.0
 30
0.0
  9
$INSUNITS
 70
     4
  9
$LUNITS
 70
     2
  9
$LUPREC
 70
     4
  9
$MEASUREMENT
 70
     1
  0
ENDSEC
  0
SECTION
  2
TABLES
  0
TABLE
  2
LAYER
 70
     1
  0
LAYER
  2
0
 70
     0
 62
    70
  6
Continuous
  0
ENDTAB
  0
TABLE
  2
APPID
 70
     1
  0
APPID
  2
ACAD
 70
     0
  0
ENDTAB
  0
ENDSEC
  0
SECTION
  2
ENTITIES
  0
CIRCLE
  8
0
 10
0.0
 20
0.0
 30
0.0
 40
25.0
  0
POLYLINE
  8
0
 66
     1
 10
0.0
 20
0.0
 30
0.0
 70
     1
  0
VERTEX
  8
0
 10
6.467413973398
 20
-0.6511818474751
 42
0.0
  0
VERTEX
  8
0
 10
3.821583173398
 20
-0.651181847475
 42
0.0
  0
VERTEX
  8
0
 10
3.821583173398
 20
-9.1178422474751
 42
0.0
  0
VERTEX
  8
0
 10
6.4674139733979
 20
-9.1178422474751
 42
0.0
  0
SEQEND
  0
POLYLINE
  8
0
 66
     1
 10
0.0
 20
0.0
 30
0.0
 70
     1
  0
VERTEX
  8
0
 10
2.7632515733982
 20
7.286314552525
 42
0.0
  0
VERTEX
  8
0
 10
12.2882471733983
 20
7.286314552525
 42
0.0
  0
VERTEX
  8
0
 10
12.2882471733983
 20
9.402980552525
 42
0.0
  0
VERTEX
  8
0
 10
2.7632515733981
 20
9.4029805525251
 42
0.0
  0
SEQEND
  0
POLYLINE
  8
0
 66
     1
 10
0.0
 20
0.0
 30
0.0
 70
     1
  0
VERTEX
  8
0
 10
12.2882471733981
 20
-10.1761778474752
 42
0.0
  0
VERTEX
  8
0
 10
-12.0534096266022
 20
-10.1761778474751
 42
0.0
  0
VERTEX
  8
0
 10
-12.0534096266021
 20
-11.2345094474751
 42
0.0
  0
VERTEX
  8
0
 10
12.2882471733982
 20
-11.2345094474752
 42
0.0
  0
SEQEND
  0
POLYLINE
  8
0
 66
     1
 10
0.0
 20
0.0
 30
0.0
 70
     1
  0
VERTEX
  8
0
 10
-6.2325788266021
 20
-0.651181847475
 42
0.0
  0
VERTEX
  8
0
 10
-6.2325788266021
 20
-9.1178422474751
 42
0.0
  0
VERTEX
  8
0
 10
2.7632515733979
 20
-9.1178422474751
 42
0.0
  0
VERTEX
  8
0
 10
2.7632515733979
 20
-0.651181847475
 42
0.0
  0
SEQEND
  0
POLYLINE
  8
0
 66
     1
 10
0.0
 20
0.0
 30
0.0
 70
     1
  0
VERTEX
  8
0
 10
-2.5284136266018
 20
9.4029805525251
 42
0.0
  0
VERTEX
  8
0
 10
-12.053409626602
 20
9.4029805525251
 42
0.0
  0
VERTEX
  8
0
 10
-12.053409626602
 20
7.2863145525251
 42
0.0
  0
VERTEX
  8
0
 10
-2.5284136266018
 20
7.286314552525
 42
0.0
  0
SEQEND
  0
POLYLINE
  8
0
 66
     1
 10
0.0
 20
0.0
 30
0.0
 70
     1
  0
VERTEX
  8
0
 10
1.4549159733983
 20
5.948815352525
 42
0.0
  0
VERTEX
  8
0
 10
1.4549159733984
 20
10.7404797525251
 42
0.0
  0
VERTEX
  8
0
 10
-1.2200828266018
 20
10.7404797525251
 42
0.0
  0
VERTEX
  8
0
 10
-1.2200828266018
 20
5.948815352525
 42
0.0
  0
SEQEND
  0
POLYLINE
  8
0
 66
     1
 10
0.0
 20
0.0
 30
0.0
 70
     1
  0
VERTEX
  8
0
 10
2.7632515733981
 20
11.0887537525251
 42
0.0
  0
VERTEX
  8
0
 10
2.7627928619433
 20
11.3189411326883
 42
0.0194934438575
  0
VERTEX
  8
0
 10
2.7515001518235
 20
11.5368007217012
 42
0.0775999140695
  0
VERTEX
  8
0
 10
2.702376520325
 20
11.7304623038548
 42
0.1292980804173
  0
VERTEX
  8
0
 10
2.5910157311537
 20
11.8666061125207
 42
0.0663799586863
  0
VERTEX
  8
0
 10
2.4500951049847
 20
11.9385853876991
 42
0.0536166838881
  0
VERTEX
  8
0
 10
2.1635693277354
 20
12.0012890887413
 42
0.0256982770776
  0
VERTEX
  8
0
 10
1.6529024057141
 20
12.0375103170561
 42
0.0
  0
VERTEX
  8
0
 10
1.4610052540537
 20
12.0426202474813
 42
0.0
  0
VERTEX
  8
0
 10
1.125099443322
 20
12.0470748594095
 42
0.0
  0
VERTEX
  8
0
 10
0.1174167733981
 20
12.0488129525251
 42
0.0
  0
VERTEX
  8
0
 10
-0.2559882443167
 20
12.0488483589339
 42
0.0
  0
VERTEX
  8
0
 10
-0.9217442136515
 20
12.0468196586556
 42
0.0
  0
VERTEX
  8
0
 10
-1.1866041176195
 20
12.0433886296181
 42
0.0
  0
VERTEX
  8
0
 10
-1.3062778138972
 20
12.0407932084086
 42
0.0
  0
VERTEX
  8
0
 10
-1.5339571896381
 20
12.0329468576732
 42
0.0215854228689
  0
VERTEX
  8
0
 10
-1.9426588317206
 20
11.9994141119843
 42
0.0260584069943
  0
VERTEX
  8
0
 10
-2.099786888618
 20
11.9714934102692
 42
0.0
  0
VERTEX
  8
0
 10
-2.1682524660579
 20
11.9537746041145
 42
0.0507935718884
  0
VERTEX
  8
0
 10
-2.2922637078887
 20
11.9058017218542
 42
0.1562925192027
  0
VERTEX
  8
0
 10
-2.4582989437491
 20
11.7489285410812
 42
0.076987128132
  0
VERTEX
  8
0
 10
-2.5092408326185
 20
11.5892029428228
 42
0.0409890075503
  0
VERTEX
  8
0
 10
-2.5276528877479
 20
11.3392765232081
 42
0.0
  0
VERTEX
  8
0
 10
-2.5284136266018
 20
11.0887537525251
 42
0.0
  0
VERTEX
  8
0
 10
-2.5284136266018
 20
10.4613133525251
 42
0.0
  0
VERTEX
  8
0
 10
-12.053409626602
 20
10.4613133525251
 42
0.0
  0
VERTEX
  8
0
 10
-12.053409626602
 20
12.5779789525251
 42
0.0
  0
VERTEX
  8
0
 10
12.2882471733983
 20
12.577978952525
 42
0.0
  0
VERTEX
  8
0
 10
12.2882471733983
 20
10.461313352525
 42
0.0
  0
VERTEX
  8
0
 10
2.7632515733982
 20
10.4613133525251
 42
0.0
  0
SEQEND
  0
POLYLINE
  8
0
 66
     1
 10
0.0
 20
0.0
 30
0.0
 70
     1
  0
VERTEX
  8
0
 10
-17.7206924155191
 20
14.7411131224845
 42
0.0978463381865
  0
VERTEX
  8
0
 10
-17.8108672642186
 20
14.2847278613299
 42
0.0
  0
VERTEX
  8
0
 10
-17.8108833550811
 20
-13.7075078847913
 42
0.0
  0
VERTEX
  8
0
 10
-17.4846287644743
 20
-14.5008867729774
 42
0.063073021449
  0
VERTEX
  8
0
 10
-16.8196805591335
 20
-15.6907821430808
 42
0.0822498955938
  0
VERTEX
  8
0
 10
-15.8398409319736
 20
-16.6384092617401
 42
0.0
  0
VERTEX
  8
0
 10
-15.7462688179791
 20
-16.7011222796771
 42
0.0
  0
VERTEX
  8
0
 10
-15.6031446302169
 20
-16.7909613477668
 42
0.0
  0
VERTEX
  8
0
 10
-15.5303824402968
 20
-16.8340490169604
 42
0.0
  0
VERTEX
  8
0
 10
-15.4569976291682
 20
-16.8758741963929
 42
0.0
  0
VERTEX
  8
0
 10
-15.4601904781696
 20
-16.9197758700338
 42
0.0
  0
VERTEX
  8
0
 10
-13.9972583310983
 20
-17.5213766524877
 42
0.0
  0
VERTEX
  8
0
 10
14.2321950595672
 20
-17.5211494722881
 42
0.0
  0
VERTEX
  8
0
 10
15.0255656123335
 20
-17.1948966919661
 42
0.0630798087706
  0
VERTEX
  8
0
 10
16.2154597505944
 20
-16.5299496232557
 42
0.0822549898497
  0
VERTEX
  8
0
 10
17.1630852608975
 20
-15.5501142495527
 42
0.0270073452687
  0
VERTEX
  8
0
 10
17.4693191279991
 20
-15.0403218595676
 42
0.0146912768777
  0
VERTEX
  8
0
 10
17.60074021321
 20
-14.7734731765411
 42
0.0
  0
VERTEX
  8
0
 10
17.6616063006807
 20
-14.6378628557493
 42
0.0
  0
VERTEX
  8
0
 10
17.6909521891297
 20
-14.5695076107289
 42
0.0
  0
VERTEX
  8
0
 10
17.705359191727
 20
-14.535212722506
 42
0.0
  0
VERTEX
  8
0
 10
17.7195754666654
 20
-14.5008859087407
 42
0.0
  0
VERTEX
  8
0
 10
18.0461031057672
 20
-13.7068417622385
 42
0.0
  0
VERTEX
  8
0
 10
18.0072240323304
 20
14.3414584692549
 42
0.0202632705664
  0
VERTEX
  8
0
 10
18.0018479295126
 20
14.4730660278729
 42
0.0600859249849
  0
VERTEX
  8
0
 10
17.9740088076785
 20
14.6017686307434
 42
0.0201098973822
  0
VERTEX
  8
0
 10
17.9589363325556
 20
14.6589979767061
 42
0.0218377255142
  0
VERTEX
  8
0
 10
17.932370647772
 20
14.7438169688484
 42
0.0
  0
VERTEX
  8
0
 10
17.9011637827522
 20
14.8269643054931
 42
0.0
  0
VERTEX
  8
0
 10
17.8646456877009
 20
14.9256089198755
 42
0.0
  0
VERTEX
  8
0
 10
17.7558579703648
 20
15.2216183663288
 42
0.0947484212377
  0
VERTEX
  8
0
 10
16.8945518787274
 20
16.6997150349772
 42
0.0924642826949
  0
VERTEX
  8
0
 10
15.5533775557453
 20
17.7616466458158
 42
0.0
  0
VERTEX
  8
0
 10
15.4887662869655
 20
17.7954997234872
 42
0.0188526979084
  0
VERTEX
  8
0
 10
15.2594362331114
 20
17.9073022587362
 42
0.0
  0
VERTEX
  8
0
 10
15.2013324196018
 20
17.9336915310695
 42
0.0
  0
VERTEX
  8
0
 10
15.0254510104148
 20
18.0091836669866
 42
0.0
  0
VERTEX
  8
0
 10
14.2320797601291
 20
18.3354372538477
 42
0.0
  0
VERTEX
  8
0
 10
-13.7601411841269
 20
18.3354533447105
 42
0.097846827919
  0
VERTEX
  8
0
 10
-14.2165287024347
 20
18.2452781351402
 42
0.0
  0
VERTEX
  8
0
 10
-14.7906183846363
 20
18.0091985592645
 42
0.0583013707854
  0
VERTEX
  8
0
 10
-15.907858042269
 20
17.3994639629033
 42
0.07455774868
  0
VERTEX
  8
0
 10
-16.8251644949175
 20
16.5172425104559
 42
0.0342444429349
  0
VERTEX
  8
0
 10
-17.0592561972183
 20
16.1668459300596
 42
0.0
  0
VERTEX
  8
0
 10
-17.1118596794425
 20
16.0755176919688
 42
0.0155467279664
  0
VERTEX
  8
0
 10
-17.2605967492912
 20
15.7967177851951
 42
0.0239938057023
  0
VERTEX
  8
0
 10
-17.4846128825827
 20
15.3152039908157
 42
0.0
  0
SEQEND
  0
POLYLINE
  8
0
 66
     1
 10
0.0
 20
0.0
 30
0.0
 70
     1
  0
VERTEX
  8
0
 10
-1.4700828266018
 20
4.640483752525
 42
0.0
  0
VERTEX
  8
0
 10
-1.4700828266018
 20
3.748460152525
 42
0.0
  0
VERTEX
  8
0
 10
-1.4697013893861
 20
3.6505985088715
 42
0.0047059064867
  0
VERTEX
  8
0
 10
-1.4685079380517
 20
3.557901390474
 42
0.0151250469308
  0
VERTEX
  8
0
 10
-1.4631641425358
 20
3.3823943321573
 42
0.0230209619367
  0
VERTEX
  8
0
 10
-1.4355695833987
 20
3.0700483147369
 42
0.0515113116929
  0
VERTEX
  8
0
 10
-1.3779930281828
 20
2.833872994548
 42
0.090463390702
  0
VERTEX
  8
0
 10
-1.2843364458024
 20
2.6749586087293
 42
0.160477421578
  0
VERTEX
  8
0
 10
-1.0449862820834
 20
2.5470596619005
 42
0.0502563212595
  0
VERTEX
  8
0
 10
-0.7746068266019
 20
2.523816552525
 42
-0.0264805830855
  0
VERTEX
  8
0
 10
-0.6158265021035
 20
2.5198488419013
 42
-0.1005657699611
  0
VERTEX
  8
0
 10
-0.4951055812472
 20
2.4929167030038
 42
-0.1910232448603
  0
VERTEX
  8
0
 10
-0.4355508486061
 20
2.4247389526332
 42
-0.0839335648965
  0
VERTEX
  8
0
 10
-0.4140900986579
 20
2.2936635795525
 42
0.0
  0
VERTEX
  8
0
 10
-0.4117472266017
 20
2.160960952525
 42
0.0604045892581
  0
VERTEX
  8
0
 10
-0.3831833161846
 20
1.9241629357977
 42
0.134035610028
  0
VERTEX
  8
0
 10
-0.2128398130635
 20
1.607562474435
 42
0.2052905621045
  0
VERTEX
  8
0
 10
0.1174167733981
 20
1.465484952525
 42
0.1423912584613
  0
VERTEX
  8
0
 10
0.3524529944257
 20
1.5317029522663
 42
0.1575552845508
  0
VERTEX
  8
0
 10
0.5794949706034
 20
1.8089530765791
 42
0.1017829429021
  0
VERTEX
  8
0
 10
0.6465843733982
 20
2.160960952525
 42
-0.0264758100856
  0
VERTEX
  8
0
 10
0.6505524202761
 20
2.3197394448497
 42
-0.1005526390546
  0
VERTEX
  8
0
 10
0.6774854385462
 20
2.4404590215845
 42
-0.1910119558583
  0
VERTEX
  8
0
 10
0.7456638339283
 20
2.500013135151
 42
-0.0839568550753
  0
VERTEX
  8
0
 10
0.8767388877474
 20
2.5214736936999
 42
0.0
  0
VERTEX
  8
0
 10
1.0094403733982
 20
2.523816552525
 42
0.0342923566247
  0
VERTEX
  8
0
 10
1.2246146149405
 20
2.5370459944196
 42
0.075735951691
  0
VERTEX
  8
0
 10
1.4058840527565
 20
2.5899580011879
 42
0.1958548488806
  0
VERTEX
  8
0
 10
1.6110991924887
 20
2.8293914164371
 42
0.0567209412635
  0
VERTEX
  8
0
 10
1.6680220994253
 20
3.054561250495
 42
0.0246207081241
  0
VERTEX
  8
0
 10
1.6987965643171
 20
3.4008508269435
 42
0.0
  0
VERTEX
  8
0
 10
1.7036253348784
 20
3.5745951100603
 42
0.0
  0
VERTEX
  8
0
 10
1.7049159733983
 20
3.748460152525
 42
0.0
  0
VERTEX
  8
0
 10
1.7049159733983
 20
4.640483752525
 42
0.0
  0
VERTEX
  8
0
 10
2.0677755733982
 20
4.640483752525
 42
0.0388058677597
  0
VERTEX
  8
0
 10
2.2442849149263
 20
4.6505388594708
 42
0.051707926045
  0
VERTEX
  8
0
 10
2.3963756607691
 20
4.6846459706783
 42
0.1576133968653
  0
VERTEX
  8
0
 10
2.6139148405156
 20
4.840643396491
 42
0.0821654995344
  0
VERTEX
  8
0
 10
2.7000296573745
 20
5.0177548364679
 42
0.0
  0
VERTEX
  8
0
 10
2.7192831270267
 20
5.0887907493569
 42
0.0360139684974
  0
VERTEX
  8
0
 10
2.7550331775604
 20
5.3434842479834
 42
0.0
  0
VERTEX
  8
0
 10
2.7589123009233
 20
5.4076994357492
 42
0.0047329579336
  0
VERTEX
  8
0
 10
2.7622583497927
 20
5.5040626536572
 42
0.0
  0
VERTEX
  8
0
 10
2.7632515733981
 20
5.600543352525
 42
0.0
  0
VERTEX
  8
0
 10
2.7632515733981
 20
6.227982952525
 42
0.0
  0
VERTEX
  8
0
 10
12.2882471733983
 20
6.227982952525
 42
0.0
  0
VERTEX
  8
0
 10
12.2882471733982
 20
-9.1178422474752
 42
0.0
  0
VERTEX
  8
0
 10
7.5257495733981
 20
-9.1178422474751
 42
0.0
  0
VERTEX
  8
0
 10
7.525749573398
 20
-4.5216562474751
 42
0.0010466321056
  0
VERTEX
  8
0
 10
7.5205865467795
 20
-2.1376345783499
 42
0.0
  0
VERTEX
  8
0
 10
7.5152850709752
 20
-1.5408058475536
 42
0.0
  0
VERTEX
  8
0
 10
7.5082987499931
 20
-1.092770767253
 42
0.0
  0
VERTEX
  8
0
 10
7.4998587554643
 20
-0.7563875031637
 42
0.0
  0
VERTEX
  8
0
 10
7.4902238792542
 20
-0.5037711742087
 42
0.0183812267421
  0
VERTEX
  8
0
 10
7.4637495287091
 20
-0.1246555461191
 42
0.0294855181546
  0
VERTEX
  8
0
 10
7.4355064128006
 20
0.0648666522327
 42
0.0
  0
VERTEX
  8
0
 10
7.4328926056821
 20
0.0767462462788
 42
0.0496951150231
  0
VERTEX
  8
0
 10
7.4070305731653
 20
0.1636700046924
 42
0.101430829705
  0
VERTEX
  8
0
 10
7.359437573398
 20
0.2408417525249
 42
0.1213021578749
  0
VERTEX
  8
0
 10
7.2561502185229
 20
0.2927108875409
 42
0.0435341866449
  0
VERTEX
  8
0
 10
7.0356801255175
 20
0.3308592648355
 42
0.019303559263
  0
VERTEX
  8
0
 10
6.8201113000571
 20
0.3492910102778
 42
0.0334104727721
  0
VERTEX
  8
0
 10
6.7678035224923
 20
0.3526092291434
 42
0.0
  0
VERTEX
  8
0
 10
6.5601609999434
 20
0.3631831584546
 42
0.0083650673336
  0
VERTEX
  8
0
 10
6.3589193495372
 20
0.3707507867751
 42
0.0
  0
VERTEX
  8
0
 10
6.1638837704624
 20
0.3764681647087
 42
0.0
  0
VERTEX
  8
0
 10
5.7860224206615
 20
0.3846411650013
 42
0.0
  0
VERTEX
  8
0
 10
5.0775458999709
 20
0.3940968624709
 42
0.0
  0
VERTEX
  8
0
 10
4.4575516969786
 20
0.3989965020217
 42
0.0024211273478
  0
VERTEX
  8
0
 10
3.3725532547483
 20
0.4037668849391
 42
0.0
  0
VERTEX
  8
0
 10
1.744983270317
 20
0.4065770404529
 42
0.0
  0
VERTEX
  8
0
 10
0.117416773398
 20
0.4071537525249
 42
0.0362562716421
  0
VERTEX
  8
0
 10
0.0890427045336
 20
0.4071536268202
 42
0.0009355187258
  0
VERTEX
  8
0
 10
-1.7152222512482
 20
0.4063888660761
 42
0.0
  0
VERTEX
  8
0
 10
-3.0687403652117
 20
0.4039662278581
 42
0.0
  0
VERTEX
  8
0
 10
-4.0841236391328
 20
0.3998238607347
 42
0.0
  0
VERTEX
  8
0
 10
-4.4650146114913
 20
0.3973415605675
 42
0.0
  0
VERTEX
  8
0
 10
-4.7983666485208
 20
0.394528084838
 42
0.0
  0
VERTEX
  8
0
 10
-5.0901351773534
 20
0.3914044718247
 42
0.0
  0
VERTEX
  8
0
 10
-5.3454795262516
 20
0.387994411599
 42
0.0073578177375
  0
VERTEX
  8
0
 10
-6.2393458040189
 20
0.3666708462104
 42
0.0
  0
VERTEX
  8
0
 10
-6.2954511668101
 20
0.3644443794504
 42
0.0100473207196
  0
VERTEX
  8
0
 10
-6.5055747288204
 20
0.3542248768374
 42
0.0091549957874
  0
VERTEX
  8
0
 10
-6.8208236497587
 20
0.3285764057219
 42
0.0152944744112
  0
VERTEX
  8
0
 10
-6.9781717675617
 20
0.3035345148774
 42
0.0468024405874
  0
VERTEX
  8
0
 10
-7.0553899979174
 20
0.2815708920573
 42
0.1077384119155
  0
VERTEX
  8
0
 10
-7.124602026602
 20
0.240841752525
 42
0.1268561324334
  0
VERTEX
  8
0
 10
-7.1913739106387
 20
0.1041147753056
 42
0.0429704483574
  0
VERTEX
  8
0
 10
-7.234581966091
 20
-0.1823890065447
 42
0.0
  0
VERTEX
  8
0
 10
-7.2450602623042
 20
-0.317613165884
 42
0.009462508336
  0
VERTEX
  8
0
 10
-7.2675648086464
 20
-0.8427873856309
 42
0.0051920671256
  0
VERTEX
  8
0
 10
-7.2884106094007
 20
-2.682118048836
 42
0.0
  0
VERTEX
  8
0
 10
-7.2909116266021
 20
-4.521656247475
 42
0.0
  0
VERTEX
  8
0
 10
-7.2909116266021
 20
-9.1178422474751
 42
0.0
  0
VERTEX
  8
0
 10
-12.0534096266022
 20
-9.1178422474751
 42
0.0
  0
VERTEX
  8
0
 10
-12.053409626602
 20
6.2279829525251
 42
0.0
  0
VERTEX
  8
0
 10
-2.5284136266018
 20
6.227982952525
 42
0.0
  0
VERTEX
  8
0
 10
-2.5284136266018
 20
5.600543352525
 42
0.0
  0
VERTEX
  8
0
 10
-2.5251821111552
 20
5.4321676926349
 42
0.0328818090321
  0
VERTEX
  8
0
 10
-2.4940025991132
 20
5.1339774838389
 42
0.0718845114808
  0
VERTEX
  8
0
 10
-2.4239319872391
 20
4.9143405898032
 42
0.2029516945068
  0
VERTEX
  8
0
 10
-2.1700418117546
 20
4.6876646444087
 42
0.0588737219581
  0
VERTEX
  8
0
 10
-2.0035358852647
 20
4.6497997252285
 42
0.0389407544372
  0
VERTEX
  8
0
 10
-1.8329384266018
 20
4.640483752525
 42
0.0
  0
SEQEND
  0
POLYLINE
  8
0
 66
     1
 10
0.0
 20
0.0
 30
0.0
 70
     1
  0
VERTEX
  8
0
 10
-13.611742426602
 20
0.671737352525
 42
0.0
  0
VERTEX
  8
0
 10
-13.6093042721676
 20
-4.629832488464
 42
0.0
  0
VERTEX
  8
0
 10
-13.6070748366308
 20
-5.9552149900934
 42
0.0027026610534
  0
VERTEX
  8
0
 10
-13.5845452164732
 20
-9.9313291926225
 42
0.0
  0
VERTEX
  8
0
 10
-13.5814849983157
 20
-10.1517797319205
 42
0.0035413299748
  0
VERTEX
  8
0
 10
-13.5784355840257
 20
-10.3446992098865
 42
0.0
  0
VERTEX
  8
0
 10
-13.5769709490498
 20
-10.429107976036
 42
0.0
  0
VERTEX
  8
0
 10
-13.5705849219295
 20
-10.7454644701525
 42
0.0
  0
VERTEX
  8
0
 10
-13.5645606908664
 20
-10.9827306020395
 42
0.008118177551
  0
VERTEX
  8
0
 10
-13.5590547152451
 20
-11.160655704141
 42
0.0116329904363
  0
VERTEX
  8
0
 10
-13.5331825173125
 20
-11.6939761088584
 42
0.0
  0
VERTEX
  8
0
 10
-13.5231206777397
 20
-11.8308354526079
 42
0.0287481856418
  0
VERTEX
  8
0
 10
-13.4997619835943
 20
-12.0353639746156
 42
0.0500596658315
  0
VERTEX
  8
0
 10
-13.4487922519696
 20
-12.2347931880916
 42
0.1206625130116
  0
VERTEX
  8
0
 10
-13.2990065712176
 20
-12.4800660828744
 42
0.0924315514307
  0
VERTEX
  8
0
 10
-13.1079817735805
 20
-12.6165007533201
 42
0.0545386034092
  0
VERTEX
  8
0
 10
-12.9960093576912
 20
-12.6524414564512
 42
0.0110151946099
  0
VERTEX
  8
0
 10
-12.8802327971047
 20
-12.673318016878
 42
0.0264332130517
  0
VERTEX
  8
0
 10
-12.4188275391512
 20
-12.7221231196831
 42
0.0128819104769
  0
VERTEX
  8
0
 10
-12.2451396375152
 20
-12.7312335668695
 42
0.0
  0
VERTEX
  8
0
 10
-12.0930949012594
 20
-12.7373674134035
 42
0.0
  0
VERTEX
  8
0
 10
-11.5607094058729
 20
-12.7517345457231
 42
0.0197020155047
  0
VERTEX
  8
0
 10
-11.4940885085625
 20
-12.7530833279014
 42
0.0
  0
VERTEX
  8
0
 10
-11.0281866191877
 20
-12.7611627651658
 42
0.0
  0
VERTEX
  8
0
 10
-10.3316420714402
 20
-12.7699804046968
 42
0.0
  0
VERTEX
  8
0
 10
-9.025549144656
 20
-12.7798627056723
 42
0.0
  0
VERTEX
  8
0
 10
-8.8826628187644
 20
-12.7806244166396
 42
0.0
  0
VERTEX
  8
0
 10
-8.6013676191338
 20
-12.7819942149724
 42
0.0
  0
VERTEX
  8
0
 10
-6.4217064674138
 20
-12.7886490223612
 42
0.0
  0
VERTEX
  8
0
 10
-3.1521722507454
 20
-12.7921795432548
 42
0.0
  0
VERTEX
  8
0
 10
-1.5173529346371
 20
-12.7927064530593
 42
0.0
  0
VERTEX
  8
0
 10
0.117416773398
 20
-12.7928410474752
 42
0.0
  0
VERTEX
  8
0
 10
5.5301190434337
 20
-12.7904070532169
 42
0.0
  0
VERTEX
  8
0
 10
8.2365181986626
 20
-12.7844174226745
 42
0.0
  0
VERTEX
  8
0
 10
8.9131440241955
 20
-12.7816223879395
 42
0.0
  0
VERTEX
  8
0
 10
9.4205813637079
 20
-12.7789369935964
 42
0.0
  0
VERTEX
  8
0
 10
10.181730715358
 20
-12.7735570622677
 42
0.0
  0
VERTEX
  8
0
 10
10.3720524634108
 20
-12.7718721066046
 42
0.0
  0
VERTEX
  8
0
 10
10.9428265504611
 20
-12.7656610316276
 42
0.0
  0
VERTEX
  8
0
 10
11.1675555878493
 20
-12.7626044074228
 42
0.0
  0
VERTEX
  8
0
 10
11.5606710434306
 20
-12.756083077829
 42
0.0
  0
VERTEX
  8
0
 10
12.1503115541292
 20
-12.7416800520998
 42
0.0
  0
VERTEX
  8
0
 10
12.4450222359555
 20
-12.7306336236794
 42
0.0
  0
VERTEX
  8
0
 10
12.5923421730083
 20
-12.7233784638007
 42
0.0
  0
VERTEX
  8
0
 10
12.7395389947317
 20
-12.7143437793748
 42
0.0122058204722
  0
VERTEX
  8
0
 10
13.0131382351885
 20
-12.6911856845985
 42
0.0588295013462
  0
VERTEX
  8
0
 10
13.2813042155976
 20
-12.6322115790039
 42
0.1239691037187
  0
VERTEX
  8
0
 10
13.5338052239696
 20
-12.4801053770758
 42
0.0931218177297
  0
VERTEX
  8
0
 10
13.6706468780371
 20
-12.2880651948957
 42
0.0529388589802
  0
VERTEX
  8
0
 10
13.7067244547205
 20
-12.1754987697913
 42
0.0
  0
VERTEX
  8
0
 10
13.7178818768999
 20
-12.1174560338205
 42
0.0
  0
VERTEX
  8
0
 10
13.7277534021307
 20
-12.0592508858698
 42
0.0
  0
VERTEX
  8
0
 10
13.7372540244381
 20
-12.0014720389291
 42
0.0
  0
VERTEX
  8
0
 10
13.7521081526435
 20
-11.8890862933801
 42
0.0301069126276
  0
VERTEX
  8
0
 10
13.755040049554
 20
-11.8626244726758
 42
0.0125029103574
  0
VERTEX
  8
0
 10
13.7846586761937
 20
-11.4451597439406
 42
0.0
  0
VERTEX
  8
0
 10
13.796399506162
 20
-11.1315320263961
 42
0.0026137383905
  0
VERTEX
  8
0
 10
13.8157369417994
 20
-10.1903030175862
 42
0.0
  0
VERTEX
  8
0
 10
13.8242308377479
 20
-9.511501495868
 42
0.0017533311562
  0
VERTEX
  8
0
 10
13.8392383484699
 20
-6.9656883256987
 42
0.0157604433038
  0
VERTEX
  8
0
 10
13.8396141793289
 20
-6.8463076009839
 42
0.0
  0
VERTEX
  8
0
 10
13.8403033528825
 20
-6.6113496083392
 42
0.0
  0
VERTEX
  8
0
 10
13.8456695448533
 20
-2.9698241782755
 42
0.0
  0
VERTEX
  8
0
 10
13.8461252640172
 20
-2.0593976749098
 42
0.0
  0
VERTEX
  8
0
 10
13.8464834330615
 20
-0.6938284764471
 42
0.0
  0
VERTEX
  8
0
 10
13.846527370154
 20
-0.3523886289346
 42
0.0
  0
VERTEX
  8
0
 10
13.8465667058816
 20
0.1596935040923
 42
0.0
  0
VERTEX
  8
0
 10
13.8465758493122
 20
0.415725576605
 42
0.0
  0
VERTEX
  8
0
 10
13.8465771416741
 20
0.4797488164047
 42
0.0
  0
VERTEX
  8
0
 10
13.8465778615556
 20
0.5277989248754
 42
0.0118581866282
  0
VERTEX
  8
0
 10
13.8465787733982
 20
0.6717373525249
 42
0.0
  0
VERTEX
  8
0
 10
13.8441406952027
 20
5.9733044750728
 42
0.0
  0
VERTEX
  8
0
 10
13.8419113138601
 20
7.2986863377577
 42
0.0026940600651
  0
VERTEX
  8
0
 10
13.819382064346
 20
11.2747988148266
 42
0.0
  0
VERTEX
  8
0
 10
13.8163218855433
 20
11.4952492730652
 42
0.0035405871676
  0
VERTEX
  8
0
 10
13.8132725089548
 20
11.6881686824218
 42
0.0
  0
VERTEX
  8
0
 10
13.8118078915978
 20
11.7725774192217
 42
0.0
  0
VERTEX
  8
0
 10
13.8054219380506
 20
12.0889338066953
 42
0.0
  0
VERTEX
  8
0
 10
13.7993977722771
 20
12.3261998614034
 42
0.0081182629028
  0
VERTEX
  8
0
 10
13.793891853478
 20
12.504124906318
 42
0.0116354434091
  0
VERTEX
  8
0
 10
13.7680198970485
 20
13.0374451237467
 42
0.0
  0
VERTEX
  8
0
 10
13.757958137427
 20
13.1743045097044
 42
0.0287557863202
  0
VERTEX
  8
0
 10
13.7345996194417
 20
13.3788329832282
 42
0.0500643317928
  0
VERTEX
  8
0
 10
13.683630228746
 20
13.5782620071251
 42
0.120577085199
  0
VERTEX
  8
0
 10
13.5338217970295
 20
13.8235583100646
 42
0.0925926522221
  0
VERTEX
  8
0
 10
13.3427927050842
 20
13.9599808012425
 42
0.0545410085992
  0
VERTEX
  8
0
 10
13.2308238743524
 20
13.9959140500751
 42
0.0096111066871
  0
VERTEX
  8
0
 10
13.1150489318186
 20
14.0167857658987
 42
0.0256012272466
  0
VERTEX
  8
0
 10
12.6535926494469
 20
14.0655888458795
 42
0.0126260980739
  0
VERTEX
  8
0
 10
12.4798784840162
 20
14.0746994109997
 42
0.0
  0
VERTEX
  8
0
 10
12.3278092327149
 20
14.0808334716254
 42
0.0
  0
VERTEX
  8
0
 10
11.7953315679579
 20
14.0952015463857
 42
0.0196889409197
  0
VERTEX
  8
0
 10
11.7286987032165
 20
14.0965504407392
 42
0.0
  0
VERTEX
  8
0
 10
11.2627116117661
 20
14.1046305376357
 42
0.0
  0
VERTEX
  8
0
 10
10.5662129233543
 20
14.1134470981814
 42
0.0
  0
VERTEX
  8
0
 10
9.2601090524801
 20
14.1233300138894
 42
0.0
  0
VERTEX
  8
0
 10
9.1172287159505
 20
14.1240917867683
 42
0.0011482240563
  0
VERTEX
  8
0
 10
0.1174167733981
 20
14.1363121525251
 42
0.0
  0
VERTEX
  8
0
 10
-5.2952843388261
 20
14.1338779160262
 42
0.0
  0
VERTEX
  8
0
 10
-8.0016828248302
 20
14.1278879174337
 42
0.0
  0
VERTEX
  8
0
 10
-8.6783084656122
 20
14.1250927531129
 42
0.0
  0
VERTEX
  8
0
 10
-9.1857456598203
 20
14.1224072493839
 42
0.0
  0
VERTEX
  8
0
 10
-9.9468947794341
 20
14.1170271318164
 42
0.0
  0
VERTEX
  8
0
 10
-10.1372164661711
 20
14.1153421250235
 42
0.0
  0
VERTEX
  8
0
 10
-10.7079903589524
 20
14.1091308847006
 42
0.0
  0
VERTEX
  8
0
 10
-10.932719314865
 20
14.1060741901357
 42
0.0
  0
VERTEX
  8
0
 10
-11.3258346188499
 20
14.0995527299282
 42
0.0
  0
VERTEX
  8
0
 10
-11.9154748618636
 20
14.0851494927786
 42
0.0
  0
VERTEX
  8
0
 10
-12.210185372723
 20
14.0741029568943
 42
0.0
  0
VERTEX
  8
0
 10
-12.357505206361
 20
14.0668477461921
 42
0.0
  0
VERTEX
  8
0
 10
-12.5047019054649
 20
14.0578130164169
 42
0.0122147897004
  0
VERTEX
  8
0
 10
-12.7783004928314
 20
14.0346548803342
 42
0.058842894448
  0
VERTEX
  8
0
 10
-13.0464654269562
 20
13.9756812251409
 42
0.1238807021861
  0
VERTEX
  8
0
 10
-13.298986217194
 20
13.8235559431204
 42
0.0932423194323
  0
VERTEX
  8
0
 10
-13.4358175044794
 20
13.631512876373
 42
0.0529335516815
  0
VERTEX
  8
0
 10
-13.4718890458551
 20
13.5189494302914
 42
0.0
  0
VERTEX
  8
0
 10
-13.4830440980925
 20
13.4609079522567
 42
0.0
  0
VERTEX
  8
0
 10
-13.4929141488397
 20
13.4027028988031
 42
0.0
  0
VERTEX
  8
0
 10
-13.502415203709
 20
13.3449148547068
 42
0.0
  0
VERTEX
  8
0
 10
-13.5172685073575
 20
13.232520854497
 42
0.0300598528555
  0
VERTEX
  8
0
 10
-13.5202004098828
 20
13.2060554640632
 42
0.0117991822384
  0
VERTEX
  8
0
 10
-13.5498183432244
 20
12.7885456081906
 42
0.0
  0
VERTEX
  8
0
 10
-13.5615594304057
 20
12.4748780692796
 42
0.0017122513005
  0
VERTEX
  8
0
 10
-13.5808979297396
 20
11.5335206219543
 42
0.0
  0
VERTEX
  8
0
 10
-13.5893914723378
 20
10.8547105376757
 42
0.0
  0
VERTEX
  8
0
 10
-13.5923848916494
 20
10.536475333929
 42
0.0019118848324
  0
VERTEX
  8
0
 10
-13.6097459146642
 20
5.6041195509991
 42
0.0
  0
VERTEX
  8
0
 10
-13.6113848142235
 20
3.1378961159481
 42
0.0
  0
SEQEND
  0
POLYLINE
  8
0
 66
     1
 10
0.0
 20
0.0
 30
0.0
 70
     1
  0
VERTEX
  8
0
 10
-13.985082026602
 20
16.1311461525252
 42
-0.0420238121554
  0
VERTEX
  8
0
 10
-13.876011096891
 20
16.1481393909696
 42
-0.0129730802604
  0
VERTEX
  8
0
 10
-13.4376711249431
 20
16.1744267695688
 42
-0.0675756090889
  0
VERTEX
  8
0
 10
-13.4106233626009
 20
16.1755541189316
 42
-0.0044418551094
  0
VERTEX
  8
0
 10
-11.6840998537667
 20
16.2193757483529
 42
0.0
  0
VERTEX
  8
0
 10
-10.8746986823598
 20
16.2319182307436
 42
0.0
  0
VERTEX
  8
0
 10
-10.4826004711278
 20
16.2371059538584
 42
-0.0019779320234
  0
VERTEX
  8
0
 10
-7.3947842657729
 20
16.2656939058969
 42
0.0
  0
VERTEX
  8
0
 10
-4.6928062798319
 20
16.2796390864522
 42
0.0
  0
VERTEX
  8
0
 10
-2.328622335562
 20
16.286219539829
 42
0.0
  0
VERTEX
  8
0
 10
-0.2598884931739
 20
16.2883806504913
 42
0.0
  0
VERTEX
  8
0
 10
1.5502450739576
 20
16.2876778913245
 42
0.0
  0
VERTEX
  8
0
 10
2.342207763301
 20
16.2866047037775
 42
0.0
  0
VERTEX
  8
0
 10
5.3119555489475
 20
16.2781128210337
 42
0.0
  0
VERTEX
  8
0
 10
7.5392816077015
 20
16.2662940873714
 42
0.0
  0
VERTEX
  8
0
 10
9.2098075286051
 20
16.2532918055688
 42
0.0
  0
VERTEX
  8
0
 10
10.4627674080273
 20
16.2402264679327
 42
-0.0028708277956
  0
VERTEX
  8
0
 10
11.4024174593849
 20
16.2276969491099
 42
0.0
  0
VERTEX
  8
0
 10
11.578641912165
 20
16.2249940971229
 42
0.0
  0
VERTEX
  8
0
 10
11.7438556641373
 20
16.2223362690146
 42
0.0
  0
VERTEX
  8
0
 10
11.898763445479
 20
16.2197248975153
 42
0.0
  0
VERTEX
  8
0
 10
12.189144477975
 20
16.2144775392921
 42
0.0
  0
VERTEX
  8
0
 10
12.6972575566186
 20
16.2039097565193
 42
0.0
  0
VERTEX
  8
0
 10
13.0783364898993
 20
16.1943646207165
 42
0.0
  0
VERTEX
  8
0
 10
13.6498587944256
 20
16.1753728396378
 42
0.0
  0
VERTEX
  8
0
 10
13.7927257400159
 20
16.1689951821688
 42
0.0
  0
VERTEX
  8
0
 10
14.0068781736402
 20
16.1566706865756
 42
0.0
  0
VERTEX
  8
0
 10
14.1138350146793
 20
16.1478439157534
 42
-0.043645097393
  0
VERTEX
  8
0
 10
14.2199183733983
 20
16.1311461525251
 42
-0.0913850395755
  0
VERTEX
  8
0
 10
15.0381192765365
 20
15.6548791941138
 42
-0.0830022533835
  0
VERTEX
  8
0
 10
15.6460939733982
 20
14.929183752525
 42
0.0
  0
VERTEX
  8
0
 10
15.9394935733984
 20
14.430061752525
 42
0.0
  0
VERTEX
  8
0
 10
15.9394935733982
 20
-13.6157602474752
 42
0.0
  0
VERTEX
  8
0
 10
15.6460939733981
 20
-14.1148802474752
 42
-0.08433613039
  0
VERTEX
  8
0
 10
15.0381192765364
 20
-14.8405759207196
 42
-0.0900199638905
  0
VERTEX
  8
0
 10
14.2199183733982
 20
-15.3168434474752
 42
-0.0420209599001
  0
VERTEX
  8
0
 10
14.1108475085111
 20
-15.3338367183316
 42
-0.0129698988522
  0
VERTEX
  8
0
 10
13.6725076368415
 20
-15.3601241470699
 42
-0.0675755938395
  0
VERTEX
  8
0
 10
13.6454598787998
 20
-15.3612514985829
 42
-0.0044375485797
  0
VERTEX
  8
0
 10
11.9189365371315
 20
-15.4050732115872
 42
0.0
  0
VERTEX
  8
0
 10
11.1095354135703
 20
-15.4176157179007
 42
0.0
  0
VERTEX
  8
0
 10
10.7174372221278
 20
-15.4228034509103
 42
-0.0019751829327
  0
VERTEX
  8
0
 10
7.6296211258271
 20
-15.4513914574759
 42
0.0
  0
VERTEX
  8
0
 10
4.9276431930827
 20
-15.4653366646295
 42
0.0
  0
VERTEX
  8
0
 10
2.5634592739152
 20
-15.4719171305575
 42
0.0
  0
VERTEX
  8
0
 10
0.494725439771
 20
-15.4740782453418
 42
0.0
  0
VERTEX
  8
0
 10
-1.3154081300413
 20
-15.4733754848346
 42
0.0
  0
VERTEX
  8
0
 10
-2.1073708234785
 20
-15.4723022952406
 42
0.0
  0
VERTEX
  8
0
 10
-5.077118641519
 20
-15.4638103962999
 42
0.0
  0
VERTEX
  8
0
 10
-7.3044447453578
 20
-15.4519916400952
 42
0.0
  0
VERTEX
  8
0
 10
-8.9749707158611
 20
-15.4389893334928
 42
0.0
  0
VERTEX
  8
0
 10
-10.2279306451235
 20
-15.4259239709365
 42
-0.0028698000602
  0
VERTEX
  8
0
 10
-11.1675807442773
 20
-15.4133944282156
 42
0.0
  0
VERTEX
  8
0
 10
-11.3438052073679
 20
-15.4106915710734
 42
0.0
  0
VERTEX
  8
0
 10
-11.5090189694791
 20
-15.4080337378957
 42
0.0
  0
VERTEX
  8
0
 10
-11.6639267607823
 20
-15.4054223614156
 42
0.0
  0
VERTEX
  8
0
 10
-11.9543078132953
 20
-15.4001749931838
 42
0.0
  0
VERTEX
  8
0
 10
-12.4624209322518
 20
-15.3896071902547
 42
0.0
  0
VERTEX
  8
0
 10
-12.8434999019442
 20
-15.380062036246
 42
0.0
  0
VERTEX
  8
0
 10
-13.4150222789183
 20
-15.3610702189434
 42
0.0
  0
VERTEX
  8
0
 10
-13.5578892488374
 20
-15.35469254931
 42
0.0
  0
VERTEX
  8
0
 10
-13.7720417294758
 20
-15.3423680302097
 42
0.0
  0
VERTEX
  8
0
 10
-13.8789986041862
 20
-15.3335412425519
 42
-0.0436411628122
  0
VERTEX
  8
0
 10
-13.9850820266021
 20
-15.3168434474751
 42
-0.0913712661428
  0
VERTEX
  8
0
 10
-14.8032812778921
 20
-14.8405759207195
 42
-0.083007932007
  0
VERTEX
  8
0
 10
-15.4112564266021
 20
-14.1148802474751
 42
0.0
  0
VERTEX
  8
0
 10
-15.7046576266021
 20
-13.6157602474751
 42
0.0
  0
VERTEX
  8
0
 10
-15.7046576266019
 20
14.4300617525251
 42
0.0
  0
VERTEX
  8
0
 10
-15.4112564266019
 20
14.9291837525251
 42
-0.0843448635601
  0
VERTEX
  8
0
 10
-14.8032812778919
 20
15.6548791941139
 42
-0.0900246540623
  0
SEQEND
  0
ENDSEC
  0
EOF
